Mister Superstar
Tabbed by Graham Nicholson

Main riff

------------------------------	
------------------------------
------------------------------
------------------------------                             	
----0----0--------------------
----7----5--------------------

(listen to the song if you dont know how the strum goes)
            
This is a very simple song the first note three times; the
second note, twelve times

-------------------------------------------------------------------------------e
-------------------------------------------------------------------------------b
-------------------------------------------------------------------------------g
-------------------------------------------------------------------------------d
555777777777777----------------------------------------------------------------a
333555555555555----------------------------------------------------------------e

Let each chord ring. It helps if you know how the song goes,
then you can tell how to play it. It is fairly simple.

Intro:

------------------------------------------------------
------------------------------------------------------
------------------------------------------------------
-7----77-0-3----3----3----33-0-5----5----5----55-0-7--
-0----00-0-0----0----0----00-0-0----0----0----00-0-0-- 

let each chord ring

-----------------------------------------------------
-----------------------------------------------------
-----------------------------------------------------
555777777777777--555777777777777---------------------
000000000000000--000000000000000---------------------
               ^^..pause                       Repeat