Angel With The Scabbed Wings
tabbed by: jacob wall

all strings tuned down half a step (Eb,Ab,Db,Gb,Bb,eb)

riff 1a (listen to the song to get the weird tempo to this riff)

eb||-------------------||
Bb||-------------------||
Gb||-------------------||
Db||-------------------||
Ab||--3---4---5--3--2--||
Eb||--1---2---3--1--0--||

riff 1b (in background of riff 1a)
eb||-----------12~~~~--||
Bb||--11~~~------------||
Gb||--10~~~------------||
Db||--9~~~~------------||
Ab||-------------------||
Eb||-------------------||

riff 2

eb||-------------------------------||-------------||----------||
Bb||-------------------------------||-------------||----------||
Gb||-------------------------------||--x-9-9-9-9--||----------||
Db||--3--2--x-x-x-x-9--x-x--x-x-x--||--x-x-x-x-x--||--\-3--2--||
Ab||--3--2--x-x-x-x-x--x-x--x-x-x--||--x-7-7-7-7--||--\-3--2--||
Eb||--1--0--x-x-x-x-7--x-x--x-x-x--||-------------||--\-1--0--||

riff 4 (mellow part, no distortion)

eb||------------------------------||
Bb||------------------------------||
Gb||------------------------------||
Db||----------3-------------------||
Ab||----------x-------------------||
Eb||--x-x-x-x-1--x-x--x-x-x-1--0--||

riff 5

eb||---------------------------||
Bb||---------------------------||
Gb||---------------------------||
Db||--3--2--x-x--x-x--x-x-x-x--||
Ab||--3--2--x-x--x-x--x-x-x-x--||
Eb||--1--0--x-x--x-x--x-x-x-x--||

riff 6 (chorus riff: palm mute all of the open Eb's)

eb||--------------------------------------------||
Bb||--------------------------------------------||
Gb||--2----5---8-----------------------8-8-8-8--||
Db||--2----5---8-----------------------x-x-x-x--||
Ab||--0----3---6-2---2---2---2-2--2-2--6-6-6-6--||
Eb||-------------0---0---0---0-0--0-0-----------||

riff 7 (its the same as riff 1a but starts at a different point)

eb||--------------------||
Bb||--------------------||
Gb||--------------------||
Db||--------------------||
Ab||--3--2---3---4---5--||
Eb||--1--0---1---2---3--||

riff 8 (bridge riff)               fill

eb||-----------------------------||--------||
Bb||-----------------------------||--------||
Gb||--x----4---3-----------------||--------||
Db||--x----4---3----3----4----6--||--3--2--||
Ab||--x----2---1----3----4----6--||--3--2--||
Eb||-----0----------1----2----4--||--1--0--||