Antichrist Superstar
Tabbed by: Prosthetic Synthesis

Drop D Tuning

|Key|
^ = bend

Riff 1

|-----------||-----------||-----------||-----------|
|-----------||-----------||-----------||-----------|
|-----------||-----------||-----------||-----------|
|--0-0------||--0-0------||--0-0------||--0-0------|
|--0-0------||--0-0------||--0-0------||--0-0------|
|--0-0------||--0-0------||--0-0------||--0-0------|

Riff 2

|---------------||---------------||---------------||---------------|
|---------------||---------------||---------------||---------------|
|---------------||---------------||---------------||---------------|
|--0-0-3-0------||--0-0-3-0------||--0-0-3-0------||--0-0-3-0-653--|
|--0-0-3-0-3~~--||--0-0-3-0-3~~--||--0-0-3-0-3~~--||--0-0-3-0-653--|
|--0-0-3-0------||--0-0-3-0------||--0-0-3-0------||--0-0-3-0-653--|

Riff 3

|---------||---------||---------||---------|
|---------||---------||---------||---------|
|---------||---------||---------||---------|
|-0-0-3-0-||-0-0-3-0-||-0-0-3-0-||-0-0-3-0-|
|-0-0-3-0-||-0-0-3-0-||-0-0-3-0-||-0-0-3-0-|
|-0-0-3-0-||-0-0-3-0-||-0-0-3-0-||-0-0-3-0-|

Riff 4

|--------------------------|
|--------------------------|
|--------------------------|
|--7~6~5~-0-0-3-0-0-0-3-0--|
|--7~6~5~-0-0-3-0-0-0-3-0--|
|--7~6~5~-0-0-3-0-0-0-3-0--|

Riff 5

|---------------||---------------||---------------||---------------|
|---------------||---------------||---------------||---------------|
|---------------||---------------||---------------||---------------|
|--0-0-3-0-653--||--0-0-3-0-653--||--0-0-3-0-653--||--0-0-3-0-653--|
|--0-0-3-0-653--||--0-0-3-0-653--||--0-0-3-0-653--||--0-0-3-0-653--|
|--0-0-3-0-653--||--0-0-3-0-653--||--0-0-3-0-653--||--0-0-3-0-653--|

Song Structure:
---------------
Riff 1
Riff 2
Riff 3
Riff 2
Riff 4
Riff 5
Riff 3
Riff 2
Riff 4
Riff 1
Riff 4
Riff 1