Antichrist Superstar
Tabbed by Never Born
slborn@zoomnet.net

this song has alot of corus with some kind of distortion
e|----------------------- e|---------- 
b|----------------------- b|---------- in beginning, right
g|----------------------- g|----------before following riff
d|----------------------- d|----------
a|-2-2--2-2--2-2--2-2---- a|-2-2-5-2-- 
e|-0-0--0-0--0-0--0-0---- e|-0-0-3-0--


e|----------------------------------------
b|----------------------------------------
g|----------------------------------------
d|----------^-----------^-----------------
a|-2-2-5-2--7--2-2-5-2--7--2-2-5-2-8-7-5--
e|-0-0-3-0--5--0-0-3-0--5--0-0-3-0-6-5-3--

played in most of the song over and over 
e|-------------------
b|-------------------
g|-------------------
d|-------------------
a|-2-2-5-2--2-2-5-2--
e|-0-0-3-0--0-0-3-0--

played in "cut the head offfff" 
e|---------------------------------
b|---------------------------------
g|---------------------------------
d|---------------------------------
a|-8-8-8-8-7-7-5-5-2-2-5-2--2-5-2--
e|-6-6-6-6-5-5-3-3-0-0-3-0--0-3-0--

"now you'll see your star"
e|---------------------------------------------
b|---------------------------------------------
g|---------------------------------------------
d|---------------------------------------------
a|-8-8-8-8-7-7-5-5-2-2-5-2-8-7-5-2-2-5-2-8-7-5-
e|-6-6-6-6-5-5-3-3-0-0-3-0-6-5-3-0-0-3-0-6-5-3-