1996
Tabbed by David Cogswell

Drop d

Verse

E-------------------------------------------------------|
B-------------------------------------------------------|
G-------------------------------------------------------|
D--222-575-888-75---------------------------------------|
A--222-575-888-75---------------------------------------|
D--222-575-888-75---------------------------------------|

Chorus

E-------------------------------------------------------|
B-------------------------------------------------------|
G-------------------------------------------------------|
D--2--5--8--7--xx-xxx--2--4--0--2--xx-xxx---------------|
A--2--5--8--7--xx-xxx--2--4--0--2--xx-xxx---------------|
D--2--5--8--7--xx-xxx--2--4--0--2--xx-xxx---------------|

This basically the only riff in this song

-------------------------------------------------------------------------------e
-------------------------------------------------------------------------------b
-------------------------------------------------------------------------------g
-------------------------------------------------------------------------------d
-------------------------------------------------------------------------------a
0--0-0-3h5--6--6--6--5-3-0--0-03h5-6--6--6--5-3--------------------------------e

play it half a step down (low to high- Eb Db Gb Bb Eb) -Bass-

D|------------------------------------------|
G|------------------------------------------|
B|------------------------------------------|
E|--0-0--3\5-6-6-6-5-3---0-0-3\5-6-6-6-5-3--| 

Then the band joins in to play

E|----------------------------------------
B|----------------------------------------
G|----------------------------------------
D|-2-2-5\7-8-8-8-7-5--2-2-5\7-8-8-8-7-5---
A|-2-2-5\7-8-8-8-7-5--2-2-5\7-8-8-8-7-5---
E|-0-0-3\5-6-6-6-5-3--0-0-3\5-6-6-6-5-3--- 

chorus

E|-----------------------------------------------
B|-----------------------------------------------
G|--------------9-12-7\9--------------9-12-7\9---
D|-2-5-7-8-7-5--9-12-7\9--2-5-7-8-7-5-9-12-7\9---
A|-2-5-7-8-7-5--7-10-5\7--2-5-7-8-7-5-7-10-5\7---
E|-0-3-5-6-5-3------------0-3-5-6-5-3------------