1996
Tabbed By Never Born
slborn@zoomnet.net


intro
e|-------------------------------------
b|-------------------------------------
g|-------------------------------------
d|-------------------------------------
a|-6-6-6-2-2-2-3-3-3-5-5-5-7-7-7----
e|-4-4-4-0-0-0-1-1-1-3-3-3-5-5-5-----
just before "light a candle for the sinners"

e|-----------------------
b|-----------------------
g|-----------------------
d|-----------------------
a|-2-5-5-5-5-7-8-8-8-7-5-
e|-0-3-3-3-3-5-6-6-6-5-3-

e|----------------------
b|----------------------
g|----------------------
d|---------2-8-5-8------
a|-2-5-8-7-0-6-3-6------
e|-0-3-6-5--------------
"anti People now you've...."

e|----------------------
b|----------------------
g|----------------------
d|----------------------
a|-8-8-8-7-5------------
e|-6-6-6-5-3------------
"anti-money anti-hate!"
some times just this is played 

very end
e|-----------------
b|-----------------
g|-----------------
d|-----------------
a|-----------------
e|-4~~~3~~~4~~~~---