1996
tabbed by Michael

(Drop d)

On this main verse take you're finger off of the 3rd fret to an
open and than hammer on the 5th fret and than start to play again.

e|----------------------------------------------|
B|----------------------------------------------|
G|----------------------------------------------|
D|----------------------------------------------|
A|----------------------------------------------|
E|--0-0-0-3-0-5-6-6-6-5-3-0-0-0-3-0-5-6-6-6-5-3-|

e|-------------------------------------------------------|
B|-------------------------------------------------------|
G|-------------------------------------------------------|
D|--222-575-888-75---------------------------------------|
A|--222-575-888-75---------------------------------------|
D|--222-575-888-75---------------------------------------|

Chorus

e|-------------------------------------------------------|
B|-------------------------------------------------------|
G|-------------------------------------------------------|
D|--2--5--8--7--xx-xxx--2--4--0--2--xx-xxx---------------|
A|--2--5--8--7--xx-xxx--2--4--0--2--xx-xxx---------------|
D|--2--5--8--7--xx-xxx--2--4--0--2--xx-xxx---------------|

Then the band joins in to play

e|----------------------------------------|
B|----------------------------------------|
G|----------------------------------------|
D|-2-2-5\7-8-8-8-7-5--2-2-5\7-8-8-8-7-5---|
A|-2-2-5\7-8-8-8-7-5--2-2-5\7-8-8-8-7-5---|
E|-0-0-3\5-6-6-6-5-3--0-0-3\5-6-6-6-5-3---|

chorus

e|-----------------------------------------------|
B|-----------------------------------------------|
G|--------------9-12-7\9--------------9-12-7\9---|
D|-2-5-7-8-7-5--9-12-7\9--2-5-7-8-7-5-9-12-7\9---|
A|-2-5-7-8-7-5--7-10-5\7--2-5-7-8-7-5-7-10-5\7---|
E|-0-3-5-6-5-3------------0-3-5-6-5-3------------|