1996
Tabbed by ao228@osfn.rhilinet.gov


Drop d
Verse
E-------------------------------------------------------|
B-------------------------------------------------------|
G-------------------------------------------------------|
D--222-575-888-75---------------------------------------|
A--222-575-888-75---------------------------------------|
D--222-575-888-75---------------------------------------|

Chorus
E-------------------------------------------------------|
B-------------------------------------------------------|
G-------------------------------------------------------|
D--2--5--8--7--xx-xxx--2--4--0--2--xx-xxx---------------|
A--2--5--8--7--xx-xxx--2--4--0--2--xx-xxx---------------|
D--2--5--8--7--xx-xxx--2--4--0--2--xx-xxx---------------|