Minute of Decay
tabbed by jacob wall

standard tuning
really weak distortion

riff 1
(this is weird. Im only going to put the fingering of the riff
down because its just too random, but I do have an impression of
where manson strums. heres the order of the strumming: palm
mute, strike lower strings, and for the rest palm mute twice and
strike higher, lower, higher, and then lower strings. Just
listen to the song. you'll get the idea)

e||--5--||
B||--5--||
G||--6--||
D||--7--||
A||--7--||
E||--5--||

riff 2
(I think this comes in around second chorus)

e||--------------------------||
B||--------------------------||
G||--------------------------||
D||--5--5--5--5--5--5--5--7--||
A||--5--5--5--5--5--5--5--7--||
E||--3--3--3--3--3--3--3--5--||

fill for riff 2

e||--------------------------||
B||--------------------------||
G||--------------------------||
D||--5--5--5--5--5--5--5--3--||
A||--5--5--5--5--5--5--5--3--||
E||--3--3--3--3--3--3--3--1--||

riff 3
(bridge riff: keep doing it with the volume swelling down)

e||--------------------------||
B||--------------------------||
G||--------------------------||
D||--2--------------------3--||
A||--2--------------------3--||
E||--0--------------------1--||