The Reflecting God
tabbed by K Rollins of Misanthropy
Drop D-tuning
/= bend up
\= bend down

Your world is an ashtray, we(bass enters) burn and coil like
cigarettes,The more you cry your ashes turn to mud...

e|--------------------------------------------------------------|
B|--------------------------------------------------------------|
G|--------------------------------------------------------------|
D|--------------------------------------------------------------|
A|--------------------------------------------------------------|
E|--------------------------------------------------------------|

(with flanger)

e|--------------------------------------------------------------|
B|--------------------------------------------------------------|
G|----------------------------------1/--------------------------|
D|--3---2---0---2-------3---2---0-------------------------------|
A|--------------------------------------------------------------|
E|--------------------------------------------------------------|

(repeat)

It's the nature of the leeches,The virgin's feeling cheated
You've only spent a second of your life

e|--7---7---7---7---7---7---7---7---7---7---7---7---7---7---7---|
B|--------------------------------------------------------------|
G|--------------------------------------------------------------|
D|--------------------------------------------------------------|
A|--------------------------------------------------------------|
E|--------------------------------------------------------------|

(With reverb pedal; Speed: 5, Intensity: 10)

e|--------------------------------------------------------------|
B|--------------------------------------------------------------|
G|--7----------------------7----------------------3-------------|
D|--7----------------------7----------------------3-----------5-|
A|--5----------------------5----------------------1-----------5-|
E|------------------------------------------------------------5-|
 
My world is unaffected, there is an exit here, I'll say it is

e|--------------------------------------------------------------|
B|--------------------------------------------------------------|
G|--------------------------------------------------------------|
D|------------0-------------------------------------------------|
A|------------0-------------------------------------------------|
E|------------0-------------------------------------------------|
 
and it's true There is a

e|--------------------------------------------------------------|
B|--------------------------------------------------------------|
G|--7----------------------7----------------------3-------------|
D|--7----------------------7----------------------3-----------5-|
A|--5----------------------5----------------------1-----------5-|
E|------------------------------------------------------------5-|

dream inside a dream, I'm wide awake the more I sleep, you'll

e|--------------------------------------------------------------|
B|--------------------------------------------------------------|
G|--------------------------------------------------------------|
D|------------0-------------------------------------------------|
A|------------0-------------------------------------------------|
E|------------0-------------------------------------------------|
 
understand when I'm dead...

e|--------------------------------------------------------------|
B|--------------------------------------------------------------|
G|---3----3-----------------------------------------------------|
D|---3----3-----5----5----5-----0---0---0---0---0---0-----------|
A|---1----1-----5----5----5-----0---0---0---0---0---0-----------|
E|--------------5----5----5-----0---0---0---0---0---0-----------|

I went to god just to see

e|--------------------------------------------------------------|
B|--------------------------------------------------------------|
G|---3----3-----------------------------------------------------|
D|---3----3-----5----5----5-----0---0---0---0---0---0-----------|
A|---1----1-----5----5----5-----0---0---0---0---0---0-----------|
E|--------------5----5----5-----0---0---0---0---0---0-----------|
 
And I was looking at me, yeah

e|--------------------------------------------------------------|
B|--------------------------------------------------------------|
G|---3----3-----------------------------------------------------|
D|---3----3-----5----5----5-----0---0---0---0---0---0-----------|
A|---1----1-----5----5----5-----0---0---0---0---0---0-----------|
E|--------------5----5----5-----0---0---0---0---0---0-----------|
 
Saw heaven and hell were lies, When 

e|------------------------------|
B|------------------------------|
G|---3----3---------------------|
D|---3----3-----5----5----5-----|
A|---1----1-----5----5----5-----|
E|--------------5----5----5-----|
 
I'm god every one
(Massive distortion)

e|--------------------------------------------------------------|
B|--------------------------------------------------------------|
G|--------------------------------------------------------------|
D|--0-------0-------6--6--6---5-----3---------------------------|
A|--0-------0-------6--6--6---5-----3---------------------------|
E|--0-------0-------6--6--6---5-----3---------------------------|

Scar, scar can you feel my power

e|--------------------------------------------------------------|
B|--------------------------------------------------------------|
G|--------------------------------------------------------------|
D|--0-------0-------6--6--6---5-----3---------------------------|
A|--0-------0-------6--6--6---5-----3---------------------------|
E|--0-------0-------6--6--6---5-----3---------------------------|

Shoot here and the world gets smaller

e|--------------------------------------------------------------|
B|--------------------------------------------------------------|
G|--------------------------------------------------------------|
D|--0-------0-------6--6--6---5-----3---------------------------|
A|--0-------0-------6--6--6---5-----3---------------------------|
E|--0-------0-------6--6--6---5-----3---------------------------|

Scar, scar can you feel my power

e|--------------------------------------------------------------|
B|--------------------------------------------------------------|
G|--------------------------------------------------------------|
D|--0-------0-------6--6--6---5-----3---------------------------|
A|--0-------0-------6--6--6---5-----3---------------------------|
E|--0-------0-------6--6--6---5-----3---------------------------|

One shot and the world gets smaller
(very low volume)

e|--------------------------------------------------------------|
B|--------------------------------------------------------------|
G|--------------------------------------------------------------|
D|--------------------------------------------------------------|
A|--------------------------------------------------------------|
E|---0---6--0--6--0--6---0---6---0--3---0-----------------------|

e|--------------------------------------------------------------|
B|--------------------------------------------------------------|
G|--------------------------------------------------------------|
D|--------------------------------------------------------------|
A|--------------------------------------------------------------|
E|---0---6--0--6--0--6---0---6---0--3---0-----------------------|

e|--------------------------------------------------------------|
B|--------------------------------------------------------------|
G|--------------------------------------------------------------|
D|--------------------------------------------------------------|
A|--------------------------------------------------------------|
E|---0---6--0--6--0--6---0---6---0--3---0-----------------------|

e|--------------------------------------------------------------|
B|--------------------------------------------------------------|
G|--------------------------------------------------------------|
D|--------------------------------------------------------------|
A|--------------------------------------------------------------|
E|---0---6--0--6--0--6---0---6---0--3---0-----------------------|

Let's jump upon the sharp swords, cut away our smiles
Without the threat of death, there's no reasonTo live, at all
(With reverb pedal; Speed: 5, Intensity: 10)

e|--------------------------------------------------------------|
B|--------------------------------------------------------------|
G|--7----------------------7----------------------3-------------|
D|--7----------------------7----------------------3-----------5-|
A|--5----------------------5----------------------1-----------5-|
E|------------------------------------------------------------5-|

My world is unaffected, there is an exit here, I'll say it is

e|--------------------------------------------------------------|
B|--------------------------------------------------------------|
G|--------------------------------------------------------------|
D|------------0-------------------------------------------------|
A|------------0-------------------------------------------------|
E|------------0-------------------------------------------------|

and it's true There is a

e|--------------------------------------------------------------|
B|--------------------------------------------------------------|
G|--7----------------------7----------------------3-------------|
D|--7----------------------7----------------------3-----------5-|
A|--5----------------------5----------------------1-----------5-|
E|------------------------------------------------------------5-|

dream inside a dream, I'm wide awake the more I sleep, you'll

e|--------------------------------------------------------------|
B|--------------------------------------------------------------|
G|--------------------------------------------------------------|
D|------------0-------------------------------------------------|
A|------------0-------------------------------------------------|
E|------------0-------------------------------------------------|

understand when I'm dead...

e|--------------------------------------------------------------|
B|--------------------------------------------------------------|
G|---3----3-----------------------------------------------------|
D|---3----3-----5----5----5-----0---0---0---0---0---0-----------|
A|---1----1-----5----5----5-----0---0---0---0---0---0-----------|
E|--------------5----5----5-----0---0---0---0---0---0-----------|

I went to god just to see

e|--------------------------------------------------------------|
B|--------------------------------------------------------------|
G|---3----3-----------------------------------------------------|
D|---3----3-----5----5----5-----0---0---0---0---0---0-----------|
A|---1----1-----5----5----5-----0---0---0---0---0---0-----------|
E|--------------5----5----5-----0---0---0---0---0---0-----------|

And I was looking at me, yeah

e|--------------------------------------------------------------|
B|--------------------------------------------------------------|
G|---3----3-----------------------------------------------------|
D|---3----3-----5----5----5-----0---0---0---0---0---0-----------|
A|---1----1-----5----5----5-----0---0---0---0---0---0-----------|
E|--------------5----5----5-----0---0---0---0---0---0-----------|

Saw heaven and hell were lies, When 

e|------------------------------|
B|------------------------------|
G|---3----3---------------------|
D|---3----3-----5----5----5-----|
A|---1----1-----5----5----5-----|
E|--------------5----5----5-----|

I'm god every one 
(Massive distortion)

e|--------------------------------------------------------------|
B|--------------------------------------------------------------|
G|--------------------------------------------------------------|
D|--0-------0-------6--6--6---5-----3---------------------------|
A|--0-------0-------6--6--6---5-----3---------------------------|
E|--0-------0-------6--6--6---5-----3---------------------------|

Scar, scar can you feel my power

e|--------------------------------------------------------------|
B|--------------------------------------------------------------|
G|--------------------------------------------------------------|
D|--0-------0-------6--6--6---5-----3---------------------------|
A|--0-------0-------6--6--6---5-----3---------------------------|
E|--0-------0-------6--6--6---5-----3---------------------------|

Shoot here and the world gets smaller

e|--------------------------------------------------------------|
B|--------------------------------------------------------------|
G|--------------------------------------------------------------|
D|--0-------0-------6--6--6---5-----3---------------------------|
A|--0-------0-------6--6--6---5-----3---------------------------|
E|--0-------0-------6--6--6---5-----3---------------------------|

Scar, scar can you feel my power

e|--------------------------------------------------------------|
B|--------------------------------------------------------------|
G|--------------------------------------------------------------|
D|--0-------0-------6--6--6---5-----3---------------------------|
A|--0-------0-------6--6--6---5-----3---------------------------|
E|--0-------0-------6--6--6---5-----3---------------------------|

One shot and the world gets smaller

e|--------------------------------------------------------------|
B|--------------------------------------------------------------|
G|--------------------------------------------------------------|
D|--0-------0-------6--6--6---5-----3---------------------------|
A|--0-------0-------6--6--6---5-----3---------------------------|
E|--0-------0-------6--6--6---5-----3---------------------------|

Scar, scar can you feel my power

e|--------------------------------------------------------------|
B|--------------------------------------------------------------|
G|--------------------------------------------------------------|
D|--0-------0-------6--6--6---5-----3---------------------------|
A|--0-------0-------6--6--6---5-----3---------------------------|
E|--0-------0-------6--6--6---5-----3---------------------------|

Shoot here and the world gets smaller

e|--------------------------------------------------------------|
B|--------------------------------------------------------------|
G|--------------------------------------------------------------|
D|--0-------0-------6--6--6---5-----3---------------------------|
A|--0-------0-------6--6--6---5-----3---------------------------|
E|--0-------0-------6--6--6---5-----3---------------------------|

Shoot, shoot, shoot motherfucker

e|--------------------------------------------------------------|
B|--------------------------------------------------------------|
G|--------------------------------------------------------------|
D|--0-------0-------6--6--6---5-----3---------------------------|
A|--0-------0-------6--6--6---5-----3---------------------------|
E|--0-------0-------6--6--6---5-----3---------------------------|

Shoot, shoot, shoot motherfucker

e|--------------------------------------------------------------|
B|--------------------------------------------------------------|
G|--------------------------------------------------------------|
D|--0-------0--------0-------0--------0-------0-----------0-----|
A|--0-------0--------0-------0--------0-------0-----------0-----|
E|--0-------0--------0-------0--------0-------0-----------0-----|

Each thing I show you is a piece of my death
No salvation, no forgiveness(This is beyond your experience)
No salvation, no forgiveness(Forgiveness)No salvation, no
forgiveness
(Acoustic guitar, regular tuning)

e|--8---8--------5---5---5-------0--0--0--0--0--0--0--0---------|
B|--8---8--------5---5---5-------0--0--0--0--0--0--0--0---------|
G|--9---9--------6---6---6-------2--2--2--2--2--2--2--2---------|
D|--10--10-------7---7---7-------2--2--2--2--2--2--2--2---------|
A|--10--10-------7---7---7-------1--1--1--1--1--1--1--1---------|
E|--8---8--------5---5---5-------0--0--0--0--0--0--0--0---------|

I went to god just to  see

e|--8---8--------5---5---5-------0--0--0--0--0--0--0--0---------|
B|--8---8--------5---5---5-------0--0--0--0--0--0--0--0---------|
G|--9---9--------6---6---6-------2--2--2--2--2--2--2--2---------|
D|--10--10-------7---7---7-------2--2--2--2--2--2--2--2---------|
A|--10--10-------7---7---7-------1--1--1--1--1--1--1--1---------|
E|--8---8--------5---5---5-------0--0--0--0--0--0--0--0---------|

And I was looking at me, yeah

e|--8---8--------5---5---5-------0--0--0--0--0--0--0--0---------|
B|--8---8--------5---5---5-------0--0--0--0--0--0--0--0---------|
G|--9---9--------6---6---6-------2--2--2--2--2--2--2--2---------|
D|--10--10-------7---7---7-------2--2--2--2--2--2--2--2---------|
A|--10--10-------7---7---7-------1--1--1--1--1--1--1--1---------|
E|--8---8--------5---5---5-------0--0--0--0--0--0--0--0---------|

Saw heaven and hell were lie

e|--8---8--------5---5---5---|
B|--8---8--------5---5---5---|
G|--9---9--------6---6---6---|
D|--10--10-------7---7---7---|
A|--10--10-------7---7---7---|
E|--8---8--------5---5---5---|

When I'm god everyone
(Massive distortion)

e|--------------------------------------------------------------|
B|--------------------------------------------------------------|
G|--------------------------------------------------------------|
D|--0-------0-------6--6--6---5-----3---------------------------|
A|--0-------0-------6--6--6---5-----3---------------------------|
E|--0-------0-------6--6--6---5-----3---------------------------|

Scar, scar can you feel my power

e|--------------------------------------------------------------|
B|--------------------------------------------------------------|
G|--------------------------------------------------------------|
D|--0-------0-------6--6--6---5-----3---------------------------|
A|--0-------0-------6--6--6---5-----3---------------------------|
E|--0-------0-------6--6--6---5-----3---------------------------|

Shoot here and the world gets smaller

e|--------------------------------------------------------------|
B|--------------------------------------------------------------|
G|--------------------------------------------------------------|
D|--0-------0-------6--6--6---5-----3---------------------------|
A|--0-------0-------6--6--6---5-----3---------------------------|
E|--0-------0-------6--6--6---5-----3---------------------------|

Scar, scar can you feel my power

e|--------------------------------------------------------------|
B|--------------------------------------------------------------|
G|--------------------------------------------------------------|
D|--0-------0-------6--6--6---5-----3---------------------------|
A|--0-------0-------6--6--6---5-----3---------------------------|
E|--0-------0-------6--6--6---5-----3---------------------------|

One shot and the world gets smaller

e|--------------------------------------------------------------|
B|--------------------------------------------------------------|
G|--------------------------------------------------------------|
D|--0-------0-------6--6--6---5-----3---------------------------|
A|--0-------0-------6--6--6---5-----3---------------------------|
E|--0-------0-------6--6--6---5-----3---------------------------|

Scar, scar can you feel my power

e|--------------------------------------------------------------|
B|--------------------------------------------------------------|
G|--------------------------------------------------------------|
D|--0-------0-------6--6--6---5-----3---------------------------|
A|--0-------0-------6--6--6---5-----3---------------------------|
E|--0-------0-------6--6--6---5-----3---------------------------|

Shoot here and the world gets smaller

e|--------------------------------------------------------------|
B|--------------------------------------------------------------|
G|--------------------------------------------------------------|
D|--0-------0-------6--6--6---5-----3---------------------------|
A|--0-------0-------6--6--6---5-----3---------------------------|
E|--0-------0-------6--6--6---5-----3---------------------------|

Shoot, shoot, shoot motherfucker

e|--------------------------------------------------------------|
B|--------------------------------------------------------------|
G|--------------------------------------------------------------|
D|--0-------0-------6--6--6---5-----3---------------------------|
A|--0-------0-------6--6--6---5-----3---------------------------|
E|--0-------0-------6--6--6---5-----3---------------------------|

Shoot, shoot, shoot motherfucker

e|--------------------------------------------------------------|
B|--------------------------------------------------------------|
G|--------------------------------------------------------------|
D|--0-------0-------6--6--6---5-----3---------------------------|
A|--0-------0-------6--6--6---5-----3---------------------------|
E|--0-------0-------6--6--6---5-----3---------------------------|

Shoot, shoot, shoot motherfucker

e|--------------------------------------------------------------|
B|--------------------------------------------------------------|
G|--------------------------------------------------------------|
D|--0-------0-------6--6--6---5-----3---------------------------|
A|--0-------0-------6--6--6---5-----3---------------------------|
E|--0-------0-------6--6--6---5-----3---------------------------|

Shoot, shoot, shoot motherfucker

e|--------------------------------------------------------------|
B|--------------------------------------------------------------|
G|--------------------------------------------------------------|
D|--0-------0-------6--6--6---5-----3---------------------------|
A|--0-------0-------6--6--6---5-----3---------------------------|
E|--0-------0-------6--6--6---5-----3---------------------------|

e|--------------------------------------------------------------|
B|--------------------------------------------------------------|
G|--------------------------------------------------------------|
D|--0-------0-------6--6--6---5-----3---------------------------|
A|--0-------0-------6--6--6---5-----3---------------------------|
E|--0-------0-------6--6--6---5-----3---------------------------|

e|--------------------------------------------------------------|
B|--------------------------------------------------------------|
G|--------------------------------------------------------------|
D|--0-------0-------6--6--6---5-----3---------------------------|
A|--0-------0-------6--6--6---5-----3---------------------------|
E|--0-------0-------6--6--6---5-----3---------------------------|

e|--------------------------------------------------------------|
B|--------------------------------------------------------------|
G|--------------------------------------------------------------|
D|--0-------0-------6--6--6---5-----3---------------------------|
A|--0-------0-------6--6--6---5-----3---------------------------|
E|--0-------0-------6--6--6---5-----3---------------------------|