Cake and Sodomy

Tabbed by Daisy Bobbit (daisybobbit@hotmail.com)
Note: Cake and Sodomy uses numerous bends throughout the entire
song. This is a common technique that Daisy incorporated in his
guitaring. For the interlude you will need to use a wah-wah
pedal to create the sound of the guitar in this section. I used
the lyrics to give you placement of the chords within the song.
Enjoy the candy.

Guitar Notation:
+1/2 =bend up a half step        +1 =bend up a whole step
/s   =slide up the fretboard     \s =slide down the fretboard
X    =muted strings             ps\ =pick scrapes down fretboard
()   =harmonic at that fret     ps/ =pick scrapes up fretboard

(Drums begin song)Intro **Riff A**

         "I am the god of fuck, I am the god of fuck"
----------X-X---X---X---X--X----X-X---X---X---X--X-------|
----------X-X---X---X---X--X----X-X---X---X---X--X-------|
----------X-X---X---X---X--X----X-X---X---X---X--X-------|
-9\s------X-X---X---X---X--X----X-X---X---X---X--X--/s---|
-9\s------X-X---X---X---X--X----X-X---X---X---X--X--/s---|
-7\s------X-X---X---X---X--X----X-X---X---X---X--X--/s---|

Verse 1 (Part 1)  **Riff B**88

"Virgins sold in quantity, herded by heredity"
-------------------------------------------------|
-------------------------------------------------|
--------------------------(7)-(7)-(7)(7)(7)(7)---|
-9--9\s------------------------------------------|
-9--9\s------------------------------------------|
-7--7\s------------------------------------------|

for "red-neck-burn-out-mid-west-mind, 'who said date rape isn't kind'"
use **Riff B**88

Verse 1 (Part 2)  **Riff C**

------bend both-----------------------|
--------+1/2--------------------------|
--------/---\-------------------------|
-9-9-9--9---9---7-7-7--7---4-4-4--4---|
-9-9-9--9---9---7-7-7--7---4-4-4--4---|
-7-7-7--7---7---5-5-5--5---2-2-2--2---|

play **Riff C** 3 more times on the 3rd and 4th time through
**Riff C** the lines "porno-nation, evaluation what's this time
for 'segregation' libido, libido fascination, too much oral
defecation" is sung right after **Riff C** is played the 4th
time play:

**Fill 1**

----ps-----|    pick scrape up
----ps-----|    and down to fit
----ps-----|    sound on CD
-9--ps--/s-|
-9--ps--/s-|
-7--ps--/s-|

Chorus (Part 1) **Riff D**

"White trash get down on your knees, time for cake and sodomy"
-------------X-X-X-X----------10+1/2--------------------------|
-------------X-X-X-X----------10+1/2--------------------------|
-------------X-X-X-X----------10+1/2-----------------------7--|
--9-----9----X-X-X-X--7--7----------4-4-4-4-4-4-4-4-7--7-7-5--|
--9-----9----X-X-X-X--7--7----------4-4-4-4-4-4-4-4-7--7-7-5--|
--7-----7----X-X-X-X--5--5----------2-2-2-2-2-2-2-2-5--5-5----|

Chorus (Part 2) **Riff E**

"White trash get down on your knees, time for cake and sodomy"
-------------ps\-------------10-9-8---------------------------|
-------------ps\-------------10-9-8---------------------------|
-------------ps\-------------10-9-8------------------------7--|
--9-----9----ps\------7--7----------4-4-4-4-4-4-4-4-7--7-7-7--|
--9-----9----ps\------7--7----------4-4-4-4-4-4-4-4-7--7-7-5--|
--7-----7----ps\------5--5----------2-2-2-2-2-2-2-2-5--5-5----|

play **Riff D** then **Riff E** to complete chorus
play **Riff A**

Verse 2 (Part 1) **Riff F**

"Vcr's and vaseline, tv fucked by plastic queen"
-----------------------(5)------(7)-----X-X-\s---|
---------------------(5)------(7)-------X-X-\s---|
-------------------(5)------(7)---------X-X-\s---|
-9-9---------------------------------------------|
-9-9---------------------------------------------|
-7-7---------------------------------------------|

for "cash in hand and dick on screen, who said god was ever clean?"
use **Riff F** again

Verse 2 (Part 2) **Riff G**

-------------9+1----------(5)----------(3)-|
-------------7+1--------(5)----------(3)---|
----------------------(5)----------(3)-----|
-9-9-9--9+1/2---7-7-7--------4-4-4---------|
-9-9-9--9+1/2---7-7-7--------4-4-4---------|
-7-7-7--7+1/2---5-5-5--------2-2-2---------|

play **Riff G** 3 more times on the 3rd and 4th time through on
**Riff G** the lines "bible-belt 'round anglo-waste, putting
sinners in their place yeah, right, great if you're so good
explain the shit stains on your face" is sung right after **Riff
G** is played the 4th time play **Fill 1**

play **Riff D** then **Riff E** to complete the chorus
play **Fill 1** without the pick scrapes start **Riff H** when
Manson screams "cuntfucker"

Interlude **Riff H** (With Wah-Wah pedal)

----------------------------|----------------------------|
----------------------------|-4--4---7--7---4--4---9--9--|
-4--4---7--7---4--4---9--9--|-2--2---5--5---2--2---7--7--|

play **Riff H** another time through

Solo Portion **Riff I** (With Wah-Wah pedal)

----------------------------------------------------------|
-4--4---7--7---4--4---9--9---4--4---7--7---4--4---12--12--|
-4--4---7--7---4--4---9--9---4--4---7--7---4--4---12--12--|
----------------------------------------------------------|
----------------------------------------------------------|
----------------------------------------------------------|
play **Riff D** then **Riff E** then **Riff D** then **Riff E**
then finish with this simple riff

Ending **Riff J**

---------|
---------|
---------|
-9--9\s--|
-9--9\s--|
-7--7\s--|

Simple... well that's it practice makes perfect... If you need
help then just email Daisy he'll get back to you...