Cake and Sodomy
Tabbed by scabtree "Ben T." (scabtree@twave.net)

KEY
^7^=bairly touch the fret and pic.
\3=slide up            
/8=slide down
~5=bend the string
x=Hold the strings and just strafe the pic.

Riff \ play 2x

[-------------------------------------------------]
[-------------------------------------------------]
[------------------------^7^-^7^-^7^-^7^-^7^------]
[-9-9\3/9-----------------------------------------]
[-9-9\3/9-----------------------------------------]
[-7-7\1/7-----------------------------------------]

Virgins sold In Quantity...   Herded by Heretity.
Riff \ 2x

[-------------------------------------------------]
[-------------------------------------------------]
[-------------------------------------------------]
[-9-9\3/9-9999999--xxxxx-------xxxxx--------------]
[-9-9\3/9-9999999--xxxxx-------xxxxx--------------]
[-7-7\1/7-7777777--xxxxx--7-5--xxxxx--5-3---------]

Riff dung 

[-------------------------------------------------]
[-------------------------------------------------]
[-----------------------------7-------------------]
[-9-9\3/999999---777797---4---7-------------------]
[-9-9\3/999999---777797---4---5-------------------]
[-7-7\1/777777---555575---2-----------------------] 

Porno Nation...
                                         prechorus
[------------------------------------] [---------------]
[------------------------------------] [---------------]
[------------------------------------] [---------------]
[-4-4-4--xxxxx--999999\--7777-44-77--] [-7-8-9-10-10-10]
[-4-4-4--xxxxx--999999\--7777-44-77--] [-7-8-9-10-10-10]
[-2-2-2--xxxxx--777777\--5555-22-55--] [-5-6-7-8--8--8-]

Chorus Play 4 times

[-----------------------------------]
[-----------------------------------]
[-----------------9-----------------]
[-9--9-x-x-x--7-7-9-----4444/-7-7-7-]
[-9--9-x-x-x--7-7-7-----4444/-7-7-7-]
[-7--7-x-x-x--5-5-------2222/-5-5-5-]

white trash     knees  time and  sodomy
Next line...(some of this part is impossible to tab
             because sum of it daisy used to go off 
             the fret board competly to play on the
             pick guard.I will tab that as an I.) Play twice

[---------------------^19^--^I^----^I^--^19^------]
[-----------------^19^-----------------------^19^-]
[-------------------------------------------------]
[-9-9\3/9-----------------------------------------]
[-9-9\3/9-----------------------------------------]
[-7-7\1/7-----------------------------------------]
Next part.... (has two guitars one manson other daisy)
               Also play this rest of time until chorus
                    
manson
[-------------------------------------------------]
[-------------------------------------------------]
[-------------------------------------------------]
[-9-9\3/9-9999999--xxxxx-------xxxxx--------------]
[-9-9\3/9-9999999--xxxxx-------xxxxx--------------]
[-7-7\1/7-7777777--xxxxx-------xxxxx--------------]                    

daisy
[--------^19^---------^19^---------^21^-----------]
[---^19^-------------------^19^---------^21^------]
[------------^19^---------------------------------]
[-------------------------------------------------]
[-------------------------------------------------]
[-------------------------------------------------]    

                      Chorus Solo

[---------------------------------------------------------------------------]
[---------------------------------------------------------------------------]
[---------------------------------------------------------------------------]
[---------------------------------------------------------------------------]
[---------------------------------------------------------------------------]
[2--2--2--2--2--2/5--5--5--5--0--5--0--2--2--2--2--2--2/5--5--5--5/7--7--0--]
[---------------------------------------------------------------------------]
[---------------------------------------------------------------------------]
[--------------------------------------------------------------7--------9 --]
[-----------------------------------------------------------5--------7------]
[--------------------------------------------------------7--------9-------7-]
[2--2--2--2--2--2/5--5--5--5--0--5--0--2--2--2--2--5--5---------------------]

[--------------]
[--------------]
[----7--------9]
[-5--------7---]
[-------9------]
[--------------]                     

Chorus