Cake and Sodomy
Tabbed By Josh  - heartrot@hotmail.com

standard tuning..

key:
v   = bend down
r   = release back to normal string position after bend.
(x) = harmonic on the indicated fret
PS/ = pickscrape
.  =  let ring

starts with feedback.
Intro:
|-(7)---------------------------------------
|-(7)---------------------------------------
|-(7)-------------(7)-----------(7)---------
|-(7)-------------(7)----9-9/---(7)----9-9\-
|-(7)-----(5)~----(7)----9-9/---(7)----9-9\-
|-(7)-------------(7)----7-7/---(7)----7-7\-

 ----------------------------------
 ----------------------------------
 --(7)----------(7)----------------
 --(7)---9-9\---(7)----9-9\--------
 --(7)---9-9\---(7)----9-9\--------
 --(7)---7-7\---(7)----7-7\-2/-7~~-
note: the harmonics are actually feedback, but it's about the same pitch


Verse riff 1 (play twice):
|--------------------------------------------
|--------------------------------------------
|-(7)-----------(7)--(7)---(7)----(7)--(7)..-
|-(7)---9-9/2--------------------------------
|-(7)---9-9/2--------------------------------
|-(7)---7-7/2--------------------------------
Virgin sold in quantity, herded by heredity.  Red-neck, burnout,
mid-west mind.  Who said date-rape isn't kind?

Verse riff 2 (no vocals, play twice):
|----------------------------------------------------------
|----------------------------------------------------------
|----------------------------------------------------------
|-9-9/4\-9--9-9-9-9-9-9---7-7-7-7-7--------4-4-4-4-4-------
|-9-9/4\-9--9-9-9-9-9-9---7-7-7-7-7--------4-4-4-4-4-------
|-7-7/2\-7--7-7-7-7-7-7---5-5-5-5-5--7--5--2-2-2-2-2--5-2/-
                         |---pm----|      |---pm----|


Last Verse riff:
|---------------------------------------------
|---------------------------------------------
|-----------------------------------------7-7-
|-9-9/4\9--9-9-9-9-9-9/7--7-7-7-7/4--4-4--7-7-
|-9-9/4\9--9-9-9-9-9-9/7--7-7-7-7/4--4-4--5-5-
|-7-7/2\7--7-7-7-7-7-7/5--5-5-5-5/2--2-2------

|-------------------------------------------------
|-------------------------------------------------
|-----x-x-4--4-4-4-4-4-----------------------7----
|-9-9-x-x-4--4-4-4-4-4---7--7---7-7/4--4--4--7-/*-
|-9-9-x---2--2-2-2-2-2-x-7--7---7-7/4--4--4--5-/*-
|-7-7------------------x-5--5---5-5/2--2--2--5-/*-
* = strum while sliding down the neck toward the pickups

Chorus riff (play twice)
|------------------------------------------------------
|------XXXX-------*7*----------------------------------
|------XXXX-------*7^*--------------------------7-7----
|-9-9--XXXX--7-7--*7^*--4-4-4-4-4-4----7-7-7-7--7-7--7-
|-9-9--XXXX--7-7--------4-4-4-4-4-4----7-7-7-7--5-5--7-
|-7-7--XXXX--5-5--------2-2-2-2-2-2----5-5-5-5-------5-

|-------------------------------------------------------
|-------------------------------------------------------
|-----------------9vr-7--------------------------7-7----
|-9-9--PS/--7-7---9vr-7--4-4-4-4-4-4----7-7-7-7--7-7--7-
|-9-9--PS/--7-7----------4-4-4-4-4-4----7-7-7-7--5-5--7-
|-7-7--PS/--5-5----------2-2-2-2-2-2----5-5-5-5-------5-

then hit this chord:
|---
|---
|-9-
|-9-
|-7-
|---
and let it ring through the "i am the god.." part.

note: this isn't exactly how daisy plays it, but i've had
troubles making harmonics come out on the high e-string,
so i tabbed it for the average guitar.. still sounds fine though,
if you need the version daisy plays, email me (heartrot@hotmail.com)

Verse 2 riff 1 (play twice):
|------------------------------------------------------
|---------------------(4)-------------------x-x-x------
|-----------(5)--(4)------------------(4)---x-x-x------
|-9-9/2\--------------------(5)--(4)--------x-x-x--9-\-
|-9-9/2\-------------------------------------------7-\-
|-7-7/2\-----------------------------------------------
note: the second time you play it, after the power chords,
slide your hand slowly clear down to the neck pick up.
VCR's and Vaseline, TV f*c*ed by plastic queen.
Cash in hand and a d*c* on screen.  Who said God was ever clean?

Verse 2 riff 2  (play twice):
|--------------------------------(7)---------------(5)------
|-----------(7)-(4)-(7)^--------------(7)---------------(5)-
|-------(7)-------------------------------------------------
|-5-5---------------------7-7-7------------4-4-4------------
|-5-5---------------------7-7-7------------4-4-4------------
|-7-7---------------------5-5-5------------2-2-2------------
                         |-pm--|          |-pm--|
Verse 2 riff 3:
|----------------------------------(7)--------------------
|-----------(7)-(4)-(7)^v---------------(7)----------(7)~-
|-------(7)-----------------------------------------------
|-5-5-----------------------7-7-7-------------4-4-4-------
|-5-5-----------------------7-7-7-------------4-4-4-------
|-7-7-----------------------5-5-5-------------2-2-2-------
                           |-pm--|           |-pm--|

then play verse 2 riff 2 again

Bible belt 'round anglo waste, 
putting sinners in their place

Verse 2 riff 4:
|------------------------------------------------
|----------(7)-(4)-(7)~--------------------------
|------(7)-----------------------------7-7-------
|-7-7---------------------7-7---4-4----7-7--7^-*-
|-7-7---------------------7-7---4-4----5-5--7^-*-
|-5-5---------------------5-5---2-2---------5^-*-
* = strum while sliding down the neck toward the pickups

Play the chorus riffs again


Solo:
|------------------------------------------------------------------
|------------------------------------------------------------------
|------------------------------------------------6-6-6-6---9-9-9-9-
|-/4-4-4-4---7-7-7-7---9---4-4-4-4--7-7-7-7---9--x-x-x-x---x-x-x-x-
|--x-x-x-x---x-x-x-x---x---x-x-x-x--x-x-x-x---x--4-4-4-4---7-7-7-7-
|-/2-2-2-2---5-5-5-5---7---2-2-2-2--5-5-5-5---7--------------------

|-------------------------------------8---11---------8---------11-11-11-11-11-
|-----------------------7-7---10--10-----------7--7----10--10-----------------
|---6-6-6-6---9-9-9-9---6-6----9---9-----------6--6-----9---9-----------------
|---x-x-x-x---x-x-x-x---6-6----9---9-----------6--6-----9---9-----------------
|---4-4-4-4---7-7-7-7---------------------------------------------------------
|-----------------------------------------------------------------------------
                       *crank the wah----------------------------------------*
Then repeat the chorus riffs in reverse order.