Cake and Sodomy
Tabbed by veronica halloway 

I realize that someone already has submitted part of "Cake and Sodomy"
by Marilyn Manson but I don't think that it was really very much. It 
seems to me that so far you have the solo and the bass. That's hardly 
any of it. I'm sending this so anyone looking for that particular song
can get more from their visit here. Don't be surprised if you get any
corrections or additions to Marilyn Manson songs. Anyway, here's what
I came up with while listening to Cake and Sodomy:

Bass:
--------------------------------|
--------------------------------|
--------------------------------|
3210321032103210----------------|

Verse 1. Part 1:

--------------------------|-------------------------|
--------------------------|-12----12----12--12--12--|
--------------------------|-------------------------|
--------------------------|-------------------------|
8-8\---------3------------|-------------------------|
6-6\---------1------------|-------------------------|
Virgins sold in quantity     Herded by heredity

----------------------------|----------------------------|
----------------------------|-12----12----12--12--12-----|
----------------------------|----------------------------|
----------------------------|----------------------------|
8-8\---------3--------------|----------------------------|
6-6\---------1--------------|----------------------------|
Redneck-Burnout-Midwest Mind   Who said date-rape isn't kind?

Interlude:x2

-----------------------------------------------------|
-----------------------------------------------------|
-----------------------------------------------------|
-----------------------------------------------------|
8-8\------3/---8-(88888)-666-(X)---------------4\2---|
6-6\------1/---6-(66666)-444-(X)-6p4-1-222-(X)-----4-|

Verse 1, Part 2:

----------------------------------------------------------|
----------------------------------------------------------|
----------------------------------------------------------|
----------------------------------------------------------|
8-8\------3/---8-(88888)-7^-7^-\-3/----5------5-------12--|
6-6\------1/---6-(66666)-5^-5^-\-1/----3------3-------10--|
Pornonation, evaluation; what's this time for segregation?