Lunchbox
Tabbed by Dave

This ain't perfect but I think it's pretty close.

Intro:

e|----------------------------------------------------------|
B|----------------------------------------------------------|
G|----------------------------------------------------10----|
D|-------------7----9----9-----------------------------9----|
A|-------------5----7----7----------------------------10----|
E|---0---0-----------------0---0--0--0-3---0--0-0-0---------|

e|-----------------------------------------------------------|
B|----------------------------------------------------15-----|
G|----------------------------------------------------14-----|
D|-------------7----9----9-----------------------------------|
A|-------------5----7----7-----------------------------------|
E|--0---0-----------------0---0--0--0-3---0--0-0-0-----------|

He really bends the shit out of the D chord at the 14th fret at the end of it.

The rest of the tune is just E, G, and D:

Next motherfucker's gonna get my metal
e|------------------------------------------------------------|
B|------------------------------------------------------------|
G|------------------------------------7-----------------------|
D|------------------------------------5---7-------------------|
A|---2--------------5---------------------5-------------------|
E|---0--0-0-0-0-0---3---3--3--3-3-------------0---0---0---0---|

or something similiar to that anyways.