Lunchbox
Tabbed by NeverBorn
slborn@zoomnet.net

intro from hell all 0's are palm muted in this first part!
this isnt exacly right   that are a few harmonics but
they can be replaced with palm muted 0's (only in intro)
e|-------------------------------------------------------
b|-------------------------------------------------------
g|-----------------------------------15------------------
d|-----7/9----10/----13-7/9----8/----14-7/9----10/----13-
a|-----5/7---- 9/----12-5/7----7/-------5/7-----9/----12-
e|-000----000------00-------000----00-------000----00----

e|--------------------
b|--------------------
g|--------------------
d|-7/9---------15-----
a|-5/7---------14-----
e|----000-3-000-------

from now on all *'s are palm mutes
e|-------------------------------------------
b|-------------------------------------------
g|-------------------------------------------
d|-7-------------------*-*-*-*-*-*-*-7-------
a|-5-5-2---------------2-2-2-2-2-2-2-5-5-2---
e|---3-0----sometimes--0-0-0-0-0-0-0---3-0---

e|-------------12~---------- e|---------------------------
b|-------------------------- b|---------------------------
g|-------------------------- g|---------------------------
d|-----------------7-------- d|----------12p14h12---------
a|-----------------5-5-2---- a|-12-14-12----------13-12---
e|-0-0-0-0-0-0-------3-0---- e|---------------------------

e|------------------------------------------------
b|------------------------------------------------
g|------------------------------------------------
d|-9-9-9-9-9-9-9-9-9-12-12-12-12-12-12-12-12-12---
a|-7-7-7-7-7-7-7-7-7-10-10-10-10-10-10-10-10-10---
e|------------------------------------------------

e|------------------------------------------------
b|------------------------------------------------
g|-------------------*-*-*-*-*-*-*-*-*------------
d|-7-7-7-7-7-7-7-7-7-2-2-2-2-2-2-2-2-2------------
a|-5-5-5-5-5-5-5-5-5-0-0-0-0-0-0-0-0-0------------
e|------------------------------------------------

with wah petal
e|-----------------12----------------------------------------
b|---------------8---11-8-------8-10-11-12-15-12-15-12-15-12-
g|-7-7-7-7-7-7-9----------9-7-9------------------------------
d|-----------------------------------------------------------
a|-----------------------------------------------------------
e|-----------------------------------------------------------

e|------------------^-----
b|-12-11--10-8-7-9-10-7---
g|----------------------8-
d|------------------------
a|------------------------
e|------------------------