Lunchbox
Tabbed by SPaSMoLyTic

normal tuning


x mute
^ bends
~ slides
P pulloff
H hammer on


Intro/main riff

No one tabs this correctly and it's one of my favorite MM songs so I am making
this as accurate as possible so you all can play it the right way...

                                       
                                       full                      bend then bring down
|---------------------------------------^-------------------------------^--------|
|--------------------------------------10------------------------------15---15---|
|----------------5~7-7-----------------9-------------------------------14---14---|
|----------------5~7-7--------5------------------5~7-7--------5------------------|
|----------------3~5-5--------5------------------3~5-5--------5------------------|
|---x-x-x-x-x-x---------x-x-x-3-x-x-x-------------------x-x-x-3-x-x-x------------|


Bridge

  "Bring it down.......     verse riff*         play before "on we plow"  
|----------------------|---------------|-------------5-P-3---------|
|----------------------|---------------|------3-H-5-----------3--5-|
|----------------------|---7-----------|---------------------------|
|---2------------------|---7---5---2---|---------------------------|
|---2------------------|---5---5---2---|---------------------------|
|---0------------------|-------3---0---|---------------------------|



Play the verse riff above through the verse adding palm mutes on open Eb

Chorus

 "I wanna grow up.........      wanna be............ a  big  rock     and     rolllllllll star"

                                                                            ****palm mute****
|---------------------------------------------------------------------------------------------|
|---------------------------------------------------------------------------------------------|
|--9-9-9-9-9-9-9-9-9---12-12-12-12-12-12-12-12-12---14-14-14-14-14-14-------------------------|
|--9-9-9-9-9-9-9-9-9---12-12-12-12-12-12-12-12-12---14-14-14-14-14-14-------2-2-2-2-2-2-2-2-2-|
|--7-7-7-7-7-7-7-7-7---10-10-10-10-10-10-10-10-10---12-12-12-12-12-12-------2-2-2-2-2-2-2-2-2-|
|----------------------------------------------------------------------12~~-0-0-0-0-0-0-0-0-0-|


 
 "Next  mother fucker  gonna get my  metal"
|-----------------------------------------|
|-----------------------------------------|
|----------------------------7------------|
|----------------------------7---5----2---|   (heavy muting on this)
|----------------------------5---5----2---|
|--x----x--x--x--x-----x-x-------3----0---|


The rest of the song is pretty much found above with variations of the verse riff...
Have fun with it and if i fucked up on anything just send your 
complaints/screams/love notes/death threats to: diolosis@email.msn.com