Lunchbox
Tabbed by scabtree "Ben T." (scabtree@twave.net)

Start blah blah play 4 times blah blah
lets call this the big riff

[---------------------------------------------------------------]
[----------------------------------------------------------15---]
[---------7/9-9-x-x-x----------10-10--7/9-9-x-x-x----------14---]
[-x-x-x-x-7/9-9-x-x-x---x-x-x--9--9---7/9-9-x-x-x---x-x-x-------]
[-x-x-x-x-5/7-7-x-x-x---x-x-x---------5/7-7-x-x-x---x-x-x-------]
[-x-x-x-x-------------3-x-x-x---------------------3-x-x-x-------]

Next... after he says break it down play 1 a few
times then 2 then go back to 1 and play for a long time

        1                  
[-------------]
[-------------]
[-------------]
[--7---5----2-]
[--5---5----2-]
[------3----0-]

        2
[-----3-5-3--------]
[-3-5-------5-3----]
[------------------]
[------------------]
[------------------]
[------------------]

Chorus / play twice 

[------------------------------------------------------------------]
[------------------------------------------------------------------]
[--9999999-12-12-12-12-12-12-12-14-14-14-14-14---7-7-7-7-7-7-7-7---]
[--9999999-12-12-12-12-12-12-12-14-14-14-14-14---7-7-7-7-7-7-7-7---]
[--7777777-10-10-10-10-10-10-10-12-12-12-12-12---5-5-5-5-5-5-5-5---]
[------------------------------------------------0-0-0-0-0-0-0-0---]

play the big riff twice

Go back to this 

[-------------] 
[-------------]
[-------------]
[--7---5----2-]
[--5---5----2-]
[------3----0-]

Solo / i know part of it not the whole thing yet

[----------10-7--------------] 
[--------8-------------------]
[-7-7-7-9--------------------]
[----------------------------]
[----------------------------]
[----------------------------]

Back to the chorus and then this little poop

[-------------] 
[-------------]
[-------------]
[--7---5----2-]
[--5---5----2-]
[------3----0-]