Lunchbox
tabbed by ben

       INTRO (riff a)
|:-----------------------------------------------------------------:|
|:---------------12---------------15^^-----------------------------:|
|:-7/9-xxxx12xxxx12--7/9xxxx12xxxx15^^-----------------------------:|
|:-7/9-xxxx12xxxx10--7/9xxxx12xxxx13^^-----------------------------:|
|:-5/7-xxxx10xxxx----5/7xxxx10xxxx---------------------------------:|
|:-----------------------------------------------------------------:|

this is played were he sings "bring down" (riff b) play this 11 times
|:-------------------:|
|:-------------------:|
|:-9---------9-------:|
|:-9-12------9-------:|
|:-7------10-7-------:|
|:-------------------:|

intro solo

|---------3-454-3------|
|----3-5----------4-5--|
|----------------------|
|----------------------|
|----------------------|
|----------------------|

chorus this is were he sings "i want to grow up......" (riff c)

|:------------------------------------------------------------------:|
|:------------------------------------------------------------------:|
|:9999999999-12121212121212121212-7777777777------------------------:|
|:9999999999-12121212121212121212-7777777777------------------------:|
|:7777777777-10101010101010101010-5555555555-7777777777-------------:|
|:-------------------------------------------0000000000-------------:|


key board arranged for guitar (riff d)

|:---------:|
|:---------:|
|:---------:|
|:12-------:|
|:----10-7-:|
|:---------:|

main solo

|-------------------------------------|
|----^^^^^---------^^^^^--------------|
|----77777-5-------77777-5~-----------|
|--5--------8-7-5-5---------7~3-------|
|-------------------------------------|
|-------------------------------------|

outro

|---------------------------------|
|---------------------------------|
|-12------12------12-------12-----|
|---10------10------10-------10---|
|-----7-------7-------7--------7--|
------0td-----0tu-----0td------0tu|

order of the song
A
A
B
intro solo
B
B
B
B
B
B
B
C
A
A
B
B
B
B
B
B
B
B
B
B
B
C
D
D
D
D
main solo
C
C
C
outro
outro
outro
outro




                      NOTATION
                    td=push tremlo down
                    tu=pull tremlo up
                    ~= vibrate your finger
                    ^=pull string up
                    x=mute
                    /=slide bar up
                    |:-:|=repeat