Organ Grinder
Tabbed by John Vettese

Intro (Synth, Do this on guitar w/ flanger or chorus)

e|-13----------16--12-----13---------16--12---|
B|----14-13------------------14-13------------|

Verse:

G|-9--9--9--9--9--9------------------|
D|-9--9--9--9--9--9--5-5-5-5-8-8-8-8-|
A|-7--7--7--7--7--7--5-5-5-5-8-8-8-8-|
E|-------------------3-3-3-3-6-6-6-6-|

1st Wah Solo (play 2x)

B|----------------------------8-8\-----------------|
G|-9--7-7-7-7^9--9--7-7-7-7^9-9-9\-----------------|
D|---------------------------------5-5-5-5-8-8-8-8-|
A|---------------------------------5-5-5-5-8-8-8-8-|
E|---------------------------------3-3-3-3-6-6-6-6-|

Chorus

G|-7-7-7-7-7-7-7-7-13-13-13-13-13-13-13-13-7-7-7-7-7-7-7-7-|
D|-7-7-7-7-7-7-7-7-13-13-13-13-13-13-13-13-7-7-7-7-7-7-7-7-|
A|-5-5-5-5-5-5-5-5-11-11-11-11-11-11-11-11-5-5-5-5-5-5-5-5-|
E|---------------------------------------------------------|

G|------------|
D|-7--6--7--6-|
A|-7--6--7--6-|
E|-5--4--5--4-|

Play that 2xPlay this for "I wear this fucking mask"

G|-7-7-7-7-7-7-7-7----------7-7-7-7-7-7-7-7--------------|
D|-7-7-7-7-7-7-7-7-6--7--6--7-7-7-7-7-7-7-7-7-7--6--7--6-|
A|-5-5-5-5-5-5-5-5-6--7--6--7-5-5-5-5-5-5-5-5-7--6--7--6-|
E|-----------------4--5--4--5----------------5--4--5--4--|

Then for the second "Here is my real head" play the first riff.
Post chorus wah solo1st time (play this 2x) 

         )            )            )
e|------2--2^0-------2--2^0-------2--2^0-6^7^6^7^6^7^6^7-|
B|-5^3^0-------5^3^0--------5^3^0------------------------|

2nd time (after that 2x, play this 4x)
            )
e|---3-5-(5)--|
B|-5----------|