Organ Grinder
Tabbed by scabtree "Ben T." (scabtree@twave.net)

Intro
after a few times there is the same thing with pic scrapes

[----------------------------------------]
[----------------------------------------]
[---9--9--9--9--9------------------------]
[---9--9--9--9--9-5-5-5-5-5--8-8-8-8-8-8-]
[---7--7--7--7--7-5-5-5-5-5--8-8-8-8-8-8-]
[-----------------3-3-3-3-3--6-6-6-6-6-6-]

Main riff (same thing)

[----------------------------------------]
[----------------------------------------]
[---9--9--9--9--9------------------------]
[---9--9--9--9--9-5-5-5-5-5--8-8-8-8-8-8-]
[---7--7--7--7--7-5-5-5-5-5--8-8-8-8-8-8-]
[-----------------3-3-3-3-3--6-6-6-6-6-6-]

Chourus(poop :)

[----------------------------------------------]
[----------------------------------------------]
[-7777--13-13-13-13----------------------------]
[-7777--13-13-13-13--7-6-7-6-------------------]
[-5555--11-11-11-11--7-6-7-6-------------------]
[--------------------5-4-5-4-------------------]

Little doodoo part after chorus.

[---------------------------67676767-]  
[--------8^------8^------8^----------]  
[--9-7-----9-7-----9-7---------------]  
[------9-------9-------9-------------]  
[------------------------------------]  
[------------------------------------]