Cyclops
Tabbed by scabtree "Ben T." (scabtree@twave.net)

begining play like a buncha times....

[---------------------]
[---------------------]
[-------------------9-]
[----9---10---9---9---]
[--0---0----0---0-----]
[---------------------]

Sorta the real begining (play twice) 

[----------------------------------------------------------]
[----------------------------------------------------------]
[------10--------10-------10---------11-------11------11---]
[------9---------9--------9----------10-------10------10---]
[0-0-0-----0-0-0-----0-0------0-0-0-----0-0-0-----0-0------]
[0-0-0-----0-0-0-----0-0------0-0-0-----0-0-0-----0-0------]

Main Riff

[------------------------------------------] 
[------------------------------------------]
[------------------------------------------]
[-2-2-2-2-3-2--------------2-2-2-2-3-2---5-]
[-2-2-2-2-3-2--------------2-2-2-2-3-2---5-]
[-0-0-0-0-1-0--------------0-0-0-0-1-0---3-]

Chorus (You guessed it same part)

[----------------------------------------------------------]
[----------------------------------------------------------]
[------10--------10-------10---------11-------11------11---]
[------9---------9--------9----------10-------10------10---]
[0-0-0-----0-0-0-----0-0------0-0-0-----0-0-0-----0-0------]
[0-0-0-----0-0-0-----0-0------0-0-0-----0-0-0-----0-0------]

Solo(im probably completely worng with maybee 2 notes right :( )

[-17--15--15--12--12--9--5--5--5--5-8--0--0--1--1--2--2--0----------------->
[-------------------------------------------------------------------------->
[----------------------------------------------------------2-2-4-4-5------->
[-------------------------------------------------------------------------->
[-------------------------------------------------------------------------->
[-------------------------------------------------------------------------->

[---------------12--------------------------------------------------------->
[------------------6--6--6--6--6--6--6--1--1--1--1--1--1--1--1--6--6--6--6->
[-5--2--------------------------------------------------------------------->
[-------3--5--7------------------------------------------------------------>
[-------------------------------------------------------------------------->
[-------------------------------------------------------------------------->

[-------------------------------------------------------------------------->
[-6--6--6--12--13--12--13--12--13--12--7/10--7/10--7/10--12/15--12/15-12/15>
[-------------------------------------------------------------------------->
[-------------------------------------------------------------------------->
[-------------------------------------------------------------------------->
[-------------------------------------------------------------------------->

[-------------------------------------------------------------------------->
[-17-18-17-18-17-18-17-13-13-13-------------------------------------------->
[-------------------------------------------------------------------------->
[-------------------------------------------------------------------------->
[-------------------------------------------------------------------------->
[-------------------------------------------------------------------------->

back to main riff