Dope Hat
Normal tuning

l0 = Tenth fret

Riff 1 (Intro):

-------------------------------------------------------------|
-------------------------------------------------------------|
-------------------------------------------------------------|
----4-4-4-4-4-4-7-7-7-7-7-7-4-4-4-4-4-4-l0-l0-l0-9-9-9-------|
----4-4-4-4-4-4-7-7-7-7-7-7-4-4-4-4-4-4-l0-l0-l0-9-9-9-------|
----2-2-2-2-2-2-5-5-5-5-5-5-2-2-2-2-2-2--8--8--8-7-7-7-------|

-------------------------------------------------------------|
-------------------------------------------------------------|
-------------------------------------------------------------|
----4-4-4-4-4-4-7-7-7-7-7-7-4-4-4-4-4-4-l0-l0-l0-9-9-9-4-----|
----4-4-4-4-4-4-7-7-7-7-7-7-4-4-4-4-4-4-l0-l0-l0-9-9-9-4-----|
----2-2-2-2-2-2-5-5-5-5-5-5-2-2-2-2-2-2--8--8--8-7-7-7-2-----|

Riff 2:

----------------------------------------|
----------------------------------------|
--------------6--6----5--5----4--4------|
------4--4----6--6----5--5----4--4------|
------4--4----4--4----3--3----2--2------|
------2--2------------------------------|

Riff 3 A (Chorus):

------------------------------------------------------------|
------------------------------------------------------------|
------------------------------------------------------------|
------9--9--9--9---5--5--5--5---9--9--9--9---5--5--5--5-----|
------9--9--9--9---5--5--5--5---9--9--9--9---5--5--5--5-----|
------7--7--7--7---3--3--3--3---7--7--7--7---3--3--3--3-----|

------------------------------------------------------------|
------------------------------------------------------------|
------6--6--6--6----------------6--6--6--6------------------|
------6--6--6--6---7--7--7--7---6--6--6--6---7--7--7--7-----|
------4--4--4--4---7--7--7--7---4--4--4--4---7--7--7--7-----|
-------------------5--5--5--5----------------5--5--5--5-----|

Riff 3 B (End Chorus):

----------------------------------------------------------------|
----------------------------------------------------------------|
----------------------------------------------------------------|
------ll-ll-ll-l0-l0-l0-9-9-9-8-8-8-7-7-7-6-6-6-5-5-5-4-4-4-----|
------ll-ll-ll-l0-l0-l0-9-9-9-8-8-8-7-7-7-6-6-6-5-5-5-4-4-4-----|
-------9--9--9--8--8--8-7-7-7-6-6-6-5-5-5-4-4-4-3-3-3-2-2-2-----|

Riff 2:

Riff 3 A

Riff 4 (2nd Chorus):

------------------------------------------------------------|
------------------------------------------------------------|
------------------------------------------------------------|
------9--9--9--9---5--5--5--5---9--9--9--9---5--5--5--5-----|
------9--9--9--9---5--5--5--5---9--9--9--9---5--5--5--5-----|
------7--7--7--7---3--3--3--3---7--7--7--7---3--3--3--3-----|

------------------------------------------------------------|
------------------------------------------------------------|
------6--6--6--6----------------6--6--6--6------------------|
------6--6--6--6---7--7--7--7---6--6--6--6---7--7--7--7-----|
------4--4--4--4---7--7--7--7---4--4--4--4---7--7--7--7-----|
-------------------5--5--5--5----------------5--5--5--5-----|

------------------------------------------------------------|
------------------------------------------------------------|
------------------------------------------------------------|
------2--2--2--2---9--9--9--9---2--2--2--2---9--9--9--9-----|
------2--2--2--2---9--9--9--9---2--2--2--2---9--9--9--9-----|
------0--0--0--0---7--7--7--7---0--0--0--0---7--7--7--7-----|

------------------------------------------------------------|
------------------------------------------------------------|
-------------------6--6--6--6----------------6--6--6--6-----|
------3--3--3--3---6--6--6--6---3--3--3--3---6--6--6--6-----|
------3--3--3--3---4--4--4--4---3--3--3--3---4--4--4--4-----|
------1--1--1--1----------------1--1--1--1------------------|

----------------------------------------------------------------|
----------------------------------------------------------------|
----------------------------------------------------------------|
------ll-ll-ll-l0-l0-l0-9-9-9-8-8-8-7-7-7-6-6-6-5-5-5-4-4-4-----|
------ll-ll-ll-l0-l0-l0-9-9-9-8-8-8-7-7-7-6-6-6-5-5-5-4-4-4-----|
-------9--9--9--8--8--8-7-7-7-6-6-6-5-5-5-4-4-4-3-3-3-2-2-2-----|