Dope Hat
Tabbed by scabtree "Ben T." (scabtree@twave.net)

Intro

e-----------------------------------------------------]     
B-----------------------------------------------------]     
G-----------------------------------------------------]     
D-4-4-4-4-4-4--7-7-7-7-7-7--4-4-4-4-4-4--101010-9-9-9-]  x2 
A-4-4-4-4-4-4--7-7-7-7-7-7--4-4-4-4-4-4--101010-9-9-9-]     
E-2-2-2-2-2-2--5-5-5-5-5-5--2-2-2-2-2-2--8-8-8--7-7-7-]   

Intro kinda thing

[--------------------------------------------------]
[--------------------------17---14-----17---14-----]
[--------------------14\1----------14\---------16^-]
[---------------14\1-------------------------------]
[----------1/14------------------------------------]
[--12\1/14-----------------------------------------]

solo#1

[--5--9--2--8-8-8-8-8/1-0-0-0-0-0-1-1-3-5-5--------------------------------]
[-------------------------------------------1-5-1-7-9-7-9-7-9-7-9-7-9-7-9-7]
[--------------------------------------------------------------------------]
[--------------------------------------------------------------------------]
[--------------------------------------------------------------------------]
[--------------------------------------------------------------------------]

main riff

[----------------------]
[----------------------]
[-------6-6-5-5-4-5-4--]
[--4-4--6-6-5-5-4-5-4--]
[--4-4--4-4-3-3-2-3-2--]
[--2-2-----------------]

e-----------------------------------------------------]     
B-----------------------------------------------------]     
G-----------------------------------------------------]     
D-4-4-4-4-4-4--7-7-7-7-7-7--4-4-4-4-4-4--101010-9-9-9-] 
A-4-4-4-4-4-4--7-7-7-7-7-7--4-4-4-4-4-4--101010-9-9-9-]     
E-2-2-2-2-2-2--5-5-5-5-5-5--2-2-2-2-2-2--8-8-8--7-7-7-]   

[--------------------------------------------------------------------------]
[--------------------------------------------------------------------------]
[--9-9-9-5-5-5-5-9-9-5-5--11-11-11-7--7--7--7--11-11-7---------------------]
[--9-9-9-5-5-5-5-9-9-5-5--11-11-11-7--7--7--7--11-11-7---------------------]
[--7-7-7-3-3-3-3-7-7-3-3--9--9--9--5--5--5--5--9--9--5---------------------]
[--------------------------------------------------------------------------]

after that he goes down with this...

[--------------------------------------------------------------------------]
[--------------------------------------------------------------------------]
[-11-11-11-10-10-10-9-9-9-8-8-8-7-7-7-6-6-6-5-5-5-4-4-4--------------------]
[-11-11-11-10-10-10-9-9-9-8-8-8-7-7-7-6-6-6-5-5-5-4-4-4--4-----------------]
[-9--9--9--8--8--8--7-7-7-6-6-6-5-5-5-4-4-4-3-3-3-2-2-2--4-----------------]
[--------------------------------------------------------2-----------------]

Go back to main riff then this solo

---------------------------------------------------------------------------
---------------------------------------------------------------------------
---------------------------------------------------------------------------
---4-4-4-4-4-7-7-7-7-7-9-10-10-10-11-11-11-14-11---------------------------
---------------------------------------------------------------------------
---------------------------------------------------------------------------
 
---------------------------------------------------------------------------
---------------------------------------------------------------------------
---------------------------------------------------------------------------
---14-14-16-16-16-14-14-16-16-16-14-11-11-14-14-11-14-14-16-14-14-16-14-14-
---------------------------------------------------------------------------
--------------------------------------------------------------------------- 

-------------------------------------14-14-14-14-17-17-17-17-17 17/0-------
-------------------------14-14-14-14---------------------------------------
-------------14-14-14-14---------------------------------------------------
-16-14-14-16---------------------------------------------------------------
---------------------------------------------------------------------------
---------------------------------------------------------------------------

begining again	

e-----------------------------------------------------]     
B-----------------------------------------------------]     
G-----------------------------------------------------]     
D-4-4-4-4-4-4--7-7-7-7-7-7--4-4-4-4-4-4--101010-9-9-9-] 
A-4-4-4-4-4-4--7-7-7-7-7-7--4-4-4-4-4-4--101010-9-9-9-]     
E-2-2-2-2-2-2--5-5-5-5-5-5--2-2-2-2-2-2--8-8-8--7-7-7-]   

chorus do it twice

[--------------------------------------------------------------------------]
[--------------------------------------------------------------------------]
[--9-9-9-5-5-5-5-9-9-5-5--11-11-11-7--7--7--7--11-11-7---------------------]
[--9-9-9-5-5-5-5-9-9-5-5--11-11-11-7--7--7--7--11-11-7---------------------]
[--7-7-7-3-3-3-3-7-7-3-3--9--9--9--5--5--5--5--9--9--5---------------------]
[--------------------------------------------------------------------------]

[--------------------------------------------------------------------------]
[--------------------------------------------------------------------------]
[-11-11-11-10-10-10-9-9-9-8-8-8-7-7-7-6-6-6-5-5-5-4-4-4--------------------]
[-11-11-11-10-10-10-9-9-9-8-8-8-7-7-7-6-6-6-5-5-5-4-4-4--4-----------------]
[-9--9--9--8--8--8--7-7-7-6-6-6-5-5-5-4-4-4-3-3-3-2-2-2--4-----------------]
[--------------------------------------------------------2-----------------]