Get Your Gunn
Tabbed By: Prosthetic SynthesisRiff 1:

|------------------------------------------|
|------------------------------------------|
|------------------------------------------|
|------------------------------------------|
|----------7----------------7--------------|
|--12\---0---0--7-8---3---0---0--7-8---10--|

Riff 2:

|----------------|
|----------------|
|----------------|
|-------2--2--2--|
|-------2--2--2--|
|--7\---0--0--0--|

Riff 3: Chorus

|---------------------------------------------------------------------|
|---------------------------------------------------------------------|
|--9-9-9-------------------------------------------10-10-10-10-12-12--|
|--9-9-9-8-8-8-5-5-5-5-5-5-6-6-6-5-5-5-2-2-2-4-4-4-10-10-10-10-12-12--|
|--7-7-7-8-8-8-5-5-5-3-5-5-6-6-6-5-5-5-2-2-2-4-4-4--8--8--8--8-10-10--|
|--------6-6-6-3-3-3-3-3-3-4-4-4-3-3-3-0-0-0-2-2-2--------------------|