Get Your Gunn
Tabbed by penny mason

Tuning: Drop D.
DADGBE
This is the main riff, at the beginning, repeated about four or five 
times.
E-----|:-------------------------:|
B-----|:-------------------------:|
G-----|:-------------------------:|
D-----|:-------------------------:|
A-----|:---5-----------5---------:|
D-12/-|:-0---0-7-6-3-0---0-7-6-10:|

Then when Marilyn starts singing, it goes into a power chord.
E--|:-------------------------------:|
B--|:-------------------------------:|
G--|:-------------------------------:|
D--|:-------0-0-0-------------------:|
A--|:-------0-0-0-------------------:|
D--|:--7/---0-0-0-------------------:|

Then the chorus, it changes to this. (kinda fast)
E-|:-----------------------------------------------------------
B-|:-----------------------------------------------------------
G-|:-----------------------------------------------------------
D-|:-12-12-12---6-6-6---3-3-3-3-3-3--4-4--3-3--0-0-0--6-6-6----
A-|:-12-12-12---6-6-6---3-3-3-3-3-3--4-4--3-3--0-0-0--6-6-6----
D-|:-12-12-12---6-6-6---3-3-3-3-3-3--4-4--3-3--0-0-0--6-6-6----


E------------------:|-------------------------
B------------------:|-------------------------
G------------------:|-------------------------
D--13-13-13/15-15--:|-------------------------
A--13-13-13/15-15--:|-------------------------
D--13-13-13/15-15--:|-------------------------

I find it easier than with normal tuning because it's easier to play the 
power chords straight across than switch strings and stuff.