Wrapped in Plastic
It is the same riff just played over and over, there is a chorus
part but i haven't had time to figure it out yet.

\=slide down
/=slide up
h=hammer on

(not actual note but played inbetween notes)

G|---------------------------------------|  
D|---------------------------------------|  
A|---------------------------------------| 
E|----8-\-2--2-2-2-4--2-2-2-2-(2/5)--7-5-|    

G|---------------------------------------|
D|---------------------------------------|  
A|----------------------------------5-7--| 
E|----------2-2-2-4--2-2-2-2-(2/5)-------| 

G|---------------------------------------|  
D|---------------------------------------|  
A|---------------------------------------| 
E|------2-2-2-4--2-2-2-2-(2/7)--7h9-5h7--|    

G|---------------------------------------|  
D|-------------------4--2-----------4----|  let last note ring
A|-------------------------4--2----------| 
E|-----2-2-2-4--2-2---------------4------|

play twice