Wrapped In Plastic
Tabbed by Never Born slborn@zoomnet.net

i think theres a wah petal on this whole song because 
i tabbed it from dead in chicago boot leg.....

"SSSTTTTAAAAAYYY!!!!"
e|--------------------------------------------------
b|--------------------------------------------------
g|--------------------------------------------------
d|--------------------------------------------------
a|-2-4-4-7-4-2-4-2-4-10-9--2-4-4-7-4-2-4-2-4--12-10-
e|-0-2-2-5-2-0-2-0-2--8-7--0-2-2-5-2-0-2-0-2--10--8-

e|------------------------------------------------------
b|------------------------------------------------------
g|------------------------------------------------------
d|-----------------------------------------------4------
a|-2-4-4-7-4-2-4-2-4--9-10--2-4-4-7-4--3-2-0-2-0--------
e|-0-2-2-5-2-0-2-0-2--7--8--0-2-2-5-2-------------------

e|--------------------------------------------------
b|--------------------------------------------------
g|--------------------------------------------------
d|--------------------------------------------------
a|-2-4-4-7-4-2-4-2-4-10-9--2-4-4-7-4-2-4-2-4--12-10-
e|-0-2-2-5-2-0-2-0-2--8-7--0-2-2-5-2-0-2-0-2--10--8-

e|-------------------------------------------------------
b|-------------------------------------------------------
g|-------------------------------------------------------
d|-----------------------------------------------4-------
a|-2-4-4-7-4-2-4-2-4-11-9---2-4-4-7-4--3-2-0-2-0---------
e|-0-2-2-5-2-0-2-0-2--9-7---0-2-2-5-2---------------2~~--
then its the same thing before the corus but it ends in
e|--5~   like this and then goes the little bass solo
with this played on guitar dring bass solo

e|--------------------------------------------------
b|--------------------------------------------------
g|--------------------------------------------------
d|--------------------------------------------------
a|-2-4-4-7-4-2-4-2-4-10-9--2-4-4-7-4-2-4-2-4--12-10-
e|-0-2-2-5-2-0-2-0-2--8-7--0-2-2-5-2-0-2-0-2--10--8-

e|-------------------------------------------------------
b|-------------------------------------------------------
g|-------------------------------------------------------
d|-----------------------------------------------4-------
a|-2-4-4-7-4-2-4-2-4-11-9---2-4-4-7-4--3-2-0-2-0---------
e|-0-2-2-5-2-0-2-0-2--9-7---0-2-2-5-2---------------5~~--

e|--------------------------
b|--------------------------
g|--------------------------
d|--------------------------
a|----------------4~--------
e|-2~--5~--2~--5~-----------

then this "come into our home"

e|---------------------------------------
b|---------------------------------------
g|---------------------------------------
d|---------------------------------------
a|-2-2-4-4-4-7-7-7--2-2-7-7-7-5-5-5------
e|-0-0-2-2-2-5-5-5--0-0-5-5-5-3-3-3------


alright to get this solo you have to listen to the live version
dont ask me what the hell is on the cd 
this isnt correct but its something to work with 
with wah petal
e|-------------------------------------------------------
b|-------------------------------------------------------
g|-------------------------------------------------------
d|-------------------------------------------------------
a|-----------^--------------^----------17-15-17----17-15-
e|-13-13-13-15-13-12-13-13h15-13-12-13----------16-------

e|----------------------------------------------------
b|----------------------------------------------------
g|-----------------^-----------^-------15-17-12-0-----
d|----------15-17-18-17-15-17-18-17-16----------------
a|-15-14----------------------------------------------
e|-------16-------------------------------------------

e|------------------------------------------------------
b|---------------------------^--------------------------
g|---------9-11-------------11-9------------------------
d|-17/9-11------10--9-11-12------9-12-9-11-10-9-9-------
a|------------------------------------------------------
e|------------------------------------------------------

e|-----------------------------------------------------------------
b|-----------------------------------------------------------------
g|------------------------------------------------------------9----
d|-12-11-10-9------12-11-10-9------12-11-10-9------9-10-11-12---9--
a|------------10-9------------10-9------------10-9-----------------
e|-----------------------------------------------------------------