Wrapped In Plastic
Tabbed by scabtree "Ben T." (scabtree@twave.net)

Intro/Main Riff

[---------------------------------------------------]
[---------------------------------------------------]
[---------------------------------------------------]
[----------------------9-6--------------------------]
[----2-4-4-7-4-2-4-2-4-7-4--2-4-4-7-4-2-4-2-4-7-9---]
[-9\-0-2-2-5-2-0-2-0-2------0-2-2-5-2-0-2-0-2-5-7^~-]

[------------------------------------------------------]
[------------------------------------------------------]
[------------------------------------------------------]
[------------------------4---------------------------4-]
[--2-4-4-7-4-2-4-2-4---7----4-2-4-4-7-4--3-2-0-2-0-----]
[--0-2-2-5-2-0-2-0-2----------0-2-2-5-2----------------]

Chorus

[--------------------------------------]
[--------------------------------------]
[--------------------------------------]
[-2--22-2-2-444/777--2-22-2-2--777-666-]
[-2--22-2-2-444/777--2-22-2-2--777-666-]
[-0--00-0-0-222/555--0-00-0-0--555-444-]