Dogma
Tabbed by Nathan Ezro

the whole song is in palm-muting(basically)

x=I'm not gonna tab the excact number, so listen to it and
figure it out yourself.

Main Riff(intro also)

-------------------------------------|three (G)
-------------------------------------|four (D)
-------------------------------------|five (A)
-33333x-55555x-22222x-00000x---------|six (E)

Then it goes
Riff B

----------------------------------------------|Three (G)
----------------------------------------------|Four (D)
5-5--5-5---7-7--7-7---4-4--4-4---2-2--2-2-----|Five (A)
3-3--3-3---5-5--5-5---2-2--2-2---0-0--0-0-----|Six (E)Chorus
----------------------------------------------| 3 g 
-5-7-4-2--5-7-4-2---5-7-4-2--5-7-4-2----------| 4 d 
-5-7-4-2--5-7-4-2---5-7-4-2--5-7-4-2----------| 5 a  
-3-5-2-0--3-5-2-0---3-5-2-0--3-5-2-0----------| 6 e  

good is not-hing that you fa-vor...
-5- -7- -4- -2-  -5- -7-  -4- -2-
-5- -7- -4- -2-  -5- -7-  -4- -2-
-3- -5- -2- -0-  -3- -5-  -2- -0-

Then the only soloish part I kindof know comes up right after the first chorus-

solo:
---------------------------------------------------|string 1 e
-111111111111311-444444444444544-333333333333433---|srting 2 b
-2-------------------------------------------------|string 3 g
continued
-1--3--1--3--2-3----------------------------------|string 1 e

I don't really know about that part, but it's pretty close.

INTRO...
RIFF B...
CHORUS RIFF...
SOLO RIFF...
MAIN RIFF...
RIFF B...
CHORUS RIFF...