Dogma
Tabbed by scabtree "Ben T." (scabtree@twave.net)

intro.

[-------------------------------------------------------------]
[-------------------------------------------------------------]
[-5-5-5-5-5-5-5/8-8-8-8-8-8-8-8\7-7-7-7-7-7-7\5-5-5-5-5-5-5-5-]
[-5-5-5-5-5-5-5/8-8-8-8-8-8-8-8\7-7-7-7-7-7-7\5-5-5-5-5-5-5-5-]
[-3-3-3-3-3-3-3/6-6-6-6-6-6-6-6\5-5-5-5-5-5-5\3-3-3-3-3-3-3-3-]
[-------------------------------------------------------------]

main riff

[-------------------------------------------------------------]
[-------------------------------------------------------------]
[-5-5-----------8-8-------------7-7-----------5-5-------------]
[-5-5-----------8-8-------------7-7-----------5-5-------------]
[-3-3-----------6-6-------------5-5-----------3-3-------------]
[-------------------------------------------------------------]

good is the thing....

[---------------------------------]
[---------------------------------]
[-5-8-5-3-5-8-5-3-5-8-5-3-5-8-5-3-]
[-5-8-5-3-5-8-5-3-5-8-5-3-5-8-5-3-]
[-3-6-3-1-3 6 3 1 3 6 3 1 3 6 3 1-]
[---------------------------------]

[--------------------------------------------------]
[--------------------------------------------------]
[-5---5---5---5---5--------5---5---5------5---5----]
[-5---5---5---5---5--------5---5---5------5---5----]
[-3---3---3---3---3--------3---3---3------3---3----]
[--------------------------------------------------]

you can-not sedate      all the things you hate
solo i think

[-------------------------------------------------------------]
[-------------------------------------------------------------]
[-------------------------------------------------------------]
[-------1---1-3-331-------1---1--3^~------------1---1-3^-3^-1-]
[-3-1-3---3---------3-1-3---3---------3-1-3---3---3-----------]
[-------------------------------------------------------------]

[------------------------------------]
[------------------------------------]
[------------------------------------]
[-------1---1-3------1---1-3---1-3^~-]
[-3-1-3---3----3-1-3---3-----3-------]
[------------------------------------]