Sweet Tooth
tabbed by: Prosthetic Synthesis

Normal TuningRiff 1 A (1:14)

-------------------------------|
-------------------------------|
-------4-----------------------|
---2---4---2---5---2---7---5---|
---2---2---2---5---2---7---5---|
---0-------0---3---0---5---3---|

-------------------------------|
-------------------------------|
-------4-------------------7---|
---2---4---2---5---2---7---7---|
---2---2---2---5---2---7---5---|
---0-------0---3---0---5-------|

Riff 1 B (1:25)

--------|
--------|
--------|
---2----|
---2----|
---0----|

Riff 2 A (1:59)

-----------------------------------|
-----------------------------------|
-----------------------------------|
--4-4-4-4-3-3-3-3-2-2-2-2-3-3-3-3--|
--4-4-4-4-3-3-3-3-2-2-2-2-3-3-3-3--|
--2-2-2-2-1-1-1-1-0-0-0-0-1-1-1-1--|

Riff 2 B (2:22)

-----------------------------------|
-----------------------------------|
-----------------------------------|
--4-------3-------2-------3--------|
--4-------3-------2-------3--------|
--2-------1-------0-------1--------|

Chorus Riff: (2:25)

-------------------------------|
-------------------------------|
-------4-----------------------|
---2---4---2---5---2---7---5---|
---2---2---2---5---2---7---5---|
---0-------0---3---0---5---3---|

-------------------------------|
-------------------------------|
-------4-------------------7---|
---2---4---2---5---2---7---7---|
---2---2---2---5---2---7---5---|
---0-------0---3---0---5-------|

3:10  --  Riff 2 A
3:43  --  Riff 2 B
4:09  --  Riff 1 A

Song End: (4:43)

--------|
--------|
--------|
---2----|
---2----|
---0----|

That's it, please excuse any mistakes. I also think a missed out
a solo in there somewhere, e-mail me if you know it.