My Monkey
tabbed by jacob wall
standard tuning
Although the horn section is basically solos, ill show you the
other riffs. i'll do the solos that are in the foreground later.

riff 1
(theres a constant wah-wah guitar going on under the horn
section. daisy's just strumming the same thing over and over)

e||-----------------------------------||
B||-----------------------------------||
G||-----------------------------------||
D||--7-7-7-7-7-7-7-7-7-7-7-7-7-7-7-7--||
A||--7-7-7-7-7-7-7-7-7-7-7-7-7-7-7-7--||
E||--5-5-5-5-5-5-5-5-5-5-5-5-5-5-5-5--||

riff 2
(when lyrics come in. requires whammy bar. strum the five string
riff find of slow. the last two "5's" he bends the strings down
kind of weird, not actually sliding down)

e||--------------------------------------------8-----------8---------||
B||----------------------8---------------------8-------------5\------||
G||--------------------------------------------5-----------------5\--||
D||--7---------------------7~~~----------------5---------------------||
A||--7---------------------7~~~----------------0---------------------||
E||--5---------------------5~~~--------------------------------------||
																riff 3
(this is behind "what I make is what I am")

e||-----------------------------------------------------------------
B||-----------------------------------------------------------------
G||-----------------------------------------------------------------
D||-----------------------------------------------------------------
A||-----------------------------------------------------------------
E||--0-2-2-2-0-2-2-2-0-2-2-2-0-2-2-2-0-2-2-2-0-2-2-2-0-2-2-2-0-2-5--

riff 3 continued

e||----------------------------------------------------------------||
B||----------------------------------------------------------------||
G||----------------------------------------------------------------||
D||--2-4-4-4-2-4-4-4-2-4-4-4-2-4-4-4-2-4-4-4-2-4-4-4-/////////7-\--||
A||----------------------------------------------------------------||
E||----------------------------------------------------------------||

riff 4
(bridge riff)

e||-------------------------------------------------------------||
B||-------------------------------------------------------------||
G||-------------------------------------------------------------||
D||-------------------------------------------------------------||
A||----------------------------3----------------------------5^--||
E||--5--5-0-3-5-5-3-5--5-0-3-5----5--5-0-3-5-5-3-5--5-0-3-5-----||