Junk the Magic Dragon

h= hammer on
p= pull off
\= slide verse

e|-------------------||--------------------||-------------------------|
B|-------------------||--------------------||-------------------------|
G|-------------------||--------7//9-9\\(7)-||-------------------------|
D|-2-2-2-2--2-2--9-9-||-2-2-2--7//9-9\\(7)-||-------------------------|
A|-2-2-2-2--2-2--7-7-||-2-2-2--5//7-7\\(5)-||-------------------------|
E|-0-0-0-0--0-0--0-0-||-0-0-0--------------||-------------------------|

^^^^^^^^^^^^^^^^^^(3x)chorus

e|-------------------------------||-------------------------------|
B|-------------------------------||-------------------------------|
G|-------------------------------||-------------------------------|
D|-----------------9--8---7-7-7--||-------------------------------|
A|-5-7--5-7-7--10--9--8---7-7-7--||-------------------------------|
E|-----------------7--6---5-5-5--||-------------------------------|