Red in My Head
Tabbed by Lidsville

h= hammer on
p= pull off
\= slide intro/chorus

e|--------------------------------------||---------------------------|
B|-----------------6--------6--------4--||---------------------------|
G|-----------------6--------6--------4--||---------------------------|
D|--6\\4//6\\4//6--6--4//6--6--4//6--4--||---------------------------|
A|--6\\4//6\\4//6--4--4//6--4--4//6--2--||---------------------------|
E|--4\\2//4\\2//4-----2//4-----2//4-----||---------------------------|

main verse part

e|-------------||-------------------------------------------------|
B|-------------||-------------------------------------------------|
G|-------------||-------------------------------------------------|
D|--4//6--6-6--||-------------------------------------------------|
A|--4//6--6-6--||-------------------------------------------------|
E|--2//4--4-4--||-------------------------------------------------|

bridge <"boy little girl" and "todaaayyy">

e|---------------------------------------------||-----------------------|
B|---------------------------------------------||-----------------------|
G|--8-8-8-8---6-6-6-6---4-4-4-4---11-11-11-11--||-----------------------|
D|--8-8-8-8---6-6-6-6---4-4-4-4---11-11-11-11--||-----------------------|
A|--6-6-6-6---4-4-4-4---2-2-2-2---9--9--9--9---||-----------------------|
E|---------------------------------------------||-----------------------|

all other little 'bridges' in the song are either pick scrapes
or just Daisy putzing around with G# and F#.