Same Strange Dogma
Tabbed by Liv Dahmer

NOTES:
This is an earlier version of Dogma, for those of you who didn't
know; the speed is just about the same.

                KEY:
/ : Slide Up            \ : Slide Down
h : Hammer On           p : Pulloff
^ : Bend Up             v : Release Bend
~ : Tremlo              { : Pick Slide Up
} : Pick Slide Down     (): Natural Harmonic
x : Palm MuteRiff 1 

(intro; very light distortion):

e|----------------------------------------------
B|----------------------------------------------
G|---7-7-7-7-7----------------------------------
D|---------------5-4-6-3---5-4-6-3---5-4-6-3----
A|----------------------------------------------
E|----------------------------------------------

Riff 1 continued:

-------------------------------|
-------------------------------|
---7-7-7-7-7-------9-8-7-6-----|
---------------5-4-------------|
-------------------------------|
-------------------------------|

*Riff 2 is repeated later in the song on higher and lower strings.

Riff 2 (solo; mild distortion):

e|---------------------------------------------------------
B|---------------------------------------------------------
G|---------------------------------------------------------
D|---------------------------------------------------------
A|--1-1-1-1-2-1-1-2-1-1-3-1-1--3-3-3-3-4-3-3-4-3-3-5-3-3---
E|---------------------------------------------------------

Riff 2 continued:

----------------------------------------------------|
----------------------------------------------------|
----------------------------------------------------|
-----------------------------1-/-3---1-/-3---2--4---|
--2-2-2-2-3-2-2-3-2-2-4-2-2-------------------------|
----------------------------------------------------|

*Where to fret the muted strings on the following riff are
indicated below the staff.

Riff 3 (verse; heavy distortion):

e|-------------------------------------------------------
B|-------------------------------------------------------
G|-------------------------------------------------------
D|-------------------------------------------------------
A|-------------------------------------------------------
E|---3-3-x-x-x-x-x-x-x-x-3-3---5-5-x-x-x-x-x-x-x-x-5-5---
          0 0 0 3 3 0 0 0           0 0 0 5 5 0 0 0

Riff 3 continued:

-------------------------------------------------------|
-------------------------------------------------------|
-------------------------------------------------------|
-------------------------------------------------------|
-------------------------------------------------------|
---2-2-x-x-x-x-x-x-x-x-2-2---0-0-x-x-x-x-x-x-x-x-0-0---|
          0 0 0 2 2 0 0 0           0 0 0 0 0 0 0 0

Riff 4 (chorus; heavy distortion):

e|--------------------------|
B|--------------------------|
G|--------------------------|
D|--------------------------|
A|---3--5--2--0---3--5--0---|
E|---3--5--2--0---3--5--0---|

Riff 5 (after-chorus 1; heavy distortion):

e|-------------------|
B|-------------------|
G|-------------------|
D|-------------------|
A|---2--2--2--1--0---|
E|---2--2--2--1--0---|
Riff 6 (after-chorus 2; heavy distortion):

e|-----------------------------|
B|-----------------------------|
G|-----------------------------|
D|-----------------------------|
A|-----------------------------|
E|---1-1-1-1-1-1-1-1-1-1-1-2---|

Riff 6 (end; heavy distortion):

e|----------------------------------------------------
B|----------------------------------------------------
G|----------------------------------------------------
D|----------------------------------------------------
A|----------------------------------------------------
E|---3-3---3-3---3-3---3-3----5-5---5-5---5-5---5-5---

Riff 6 continued:

----------------------------------------------------|
----------------------------------------------------|
----------------------------------------------------|
----------------------------------------------------|
----------------------------------------------------|
---2-2---2-2---2-2---2-2----0-0---0-0---0-0---0-0---|