Son of a Man
Tabbed by Liv Dahmer

NOTES:
This is a semi-cover of 'Iron Man' by Black Sabbath. A lot of
the riffs are varied throughout the song on different strings,
but I did not specify each one; listen to the song to figure out
where they are.
                 KEY:
/ : Slide Up            \ : Slide Down
h : Hammer On           p : Pulloff
^ : Bend Up             v : Release Bend
~ : Tremlo              { : Pick Slide Up
} : Pick Slide Down     (): Natural Harmonic
x : Palm Mute

Riff 1
(intro; mild distortion):

e|-----------------------|
B|---5---7-----6-6---8---|
G|-----------------------|
D|-----------------------|
A|-----------------------|
E|-----------------------|

Riff 2
(main riff; medium distortion):

e|--------------------------------------------------------------|
B|--------------------------------------------------------------|
G|--6----8----8-/-10--10---13-\-12--13-\-12--13---8-/-10-10-10--|
D|--6----8----8-/-10--10---13-\-12--13-\-12--13---8-/-10-10-10--|
A|--4----6----6-/-8---8----11-\-10--11-\-10--11---6-/-8--8--8---|
E|--------------------------------------------------------------|

*Riff 3 is sometimes played in the background of Riff 2 by another guitar.

Riff 3
(main riff; mild distortion):

e|--------------------------------------------------------------|
B|--6----8----8---10--10---13---12--13---12--13---8--8---10-10--|
G|--------------------------------------------------------------|
D|--------------------------------------------------------------|
A|--------------------------------------------------------------|
E|--------------------------------------------------------------|

Riff 4
(bridge riff; medium distortion):

e|-----------------------------------------|
B|-----------------------------------------|
G|---------1-------------------------------|
D|--3--3-3-----3--2--1-1-1-----0--1--1-2---|
A|--------------------------1--------------|
E|-----------------------------------------|

*Riff 5 is just two power chords, but sometimes comes before Riff 6.

Riff 5
(random riff; heavy distortion):

e|-----------|
B|-----------|
G|-----------|
D|---8---6---|
A|---8---6---|
E|---6---4---|

Riff 6
(bridge riff; medium distortion):

e|-----------------------------------|
B|-----------------------------------|
G|------------------------6-7-8------|
D|------------------6-7-8------------|
A|------------6-7-8------------------|
E|---6-----8-------------------------|

Riff 7
(ending riff 1; heavy distortion):

e|-----------------------------------------|
B|-----------------------------------------|
G|-----------------------------------------|
D|-----------------------------------------|
A|---5-5-5-5--3-3-3-3--1-1-1-1--4-4--5-5---|
E|---0-0-0-0--0-0-0-0--0-0-0-0--0-0--0-0---|

Riff 8 
(ending riff 2; medium distortion):

e|-------------------------------------------------|
B|-------------------------------------------------|
G|------------------------------------5------5-----|
D|---------------------------------5--3--5-6-3-----|
A|---8--6--8----6-8-6----8--6--8---------------6---|
E|-------------------------------------------------|