The Suck for Your Solution
tabbed by jacob wall

drop d-tuning

there is a ringing noise behind the chorus riff and I cant make
out if its a guitar or keyboard so i will try to figure which
one it is.

riff 1 
(intro #1: that last chord is my best guess. The <5>'s are 
harmonics)

e|---------------------------------------------|
B|---------------------------------------------|
G|---------------------------------------------|
D|------------------------------------------6--|
A|--<5><5><5><5><5><5><5><5><5><5><5><5><5>-x--|
D|------------------------------------------6--|

riff 2
(intro #2: major distortion)

e|----------------------------------------------------------------|
G|----------------------------------------------------------8^10--|
B|--8-----7-----8-----7-----5---7---8-----7-----8-----7-----x-----|
D|--8-0-0-7-0-0-8-0-0-7-0-0-5-0-7-0-8-0-0-7-0-0-8-0-0-7-0-0-5^7---|
A|--6-0-0-5-0-0-6-0-0-5-0-0-3-0-5-0-6-0-0-5-0-0-6-0-0-5-0-0-------|
D|----0-0---0-0---0-0---0-0---0---0---0-0---0-0---0-0---0-0-------|

riff 3
(this is in the background after the second intro and is a fill 
at odd times)

e|-----------------------|
B|-----------------8^10--|
G|--7--------------x-----|
D|--7----6----5----5^7---|
A|--5----6----5----------|
D|-------6----5----------|

riff 4
(this is also a fill that is done at weird times and is hard to
distinguish from this riff and riff 4 because it is so much in
the background of the song. you can hear this when marilyn is
saying "i'll suffer for you". I cant tell if whoever is playing
guitar is bending up and down or hammering on and pulling off on
that middle part but it sounds more like a bend)

e|----------------------------|
B|----------------------8^10--|
G|--7-7-7---------------x-----|
D|--7-7-7---5^6^5--3----5^7---|
A|--5-5-5---5^6^5--3----------|
D|----------5^6^5--3----------|

riff 5
(chorus riff: there are subtle differences so I'll show the 
entire chorus riff.
^^^^ = progressively bend up half a step, 
**** = progressively bend back down to the riff written)

e|------------------------------------------------------------------
B|------------------------------------------------------------------
G|--3-3-3-3-3-3-3-3-5-5-5-5-5-5-5-7-7-7-7-7-7-7-7-7-7-7-7-7-7-7-7-7-
D|--3-3-3-3-3-3-3-3-5-5-5-5-5-5-5-7-7-7-7-7-7-7-7-7-7-7-7-7-7-7-7-7-
A|--1-1-1-1-1-1-1-1-3-3-3-3-3-3-3-5-5-5-5-5-5-5-5-5-5-5-5-5-5-5-5-5-
D|--------------------------------------------------^^^^^^^-*******-

riff 5 continued

------------------------------------------------------------------
------------------------------------------------------------------
--3-3-3-3-3-3-3-3-5-5-5-5-5-5-5-7-7-7-7-7-7-7-7-7-7-7-7-7-7-7-7-7-
--3-3-3-3-3-3-3-3-5-5-5-5-5-5-5-7-7-7-7-7-7-7-7-7-7-7-7-7-7-7-7-7-
--1-1-1-1-1-1-1-1-3-3-3-3-3-3-3-5-5-5-5-5-5-5-5-5-5-5-5-5-5-5-5-5-
--------------------------------------------------^^^^^^^-*******-

riff 5 continued

------------------------------------------------------------------
------------------------------------------------------------------
--3-3-3-3-3-3-3-3-5-5-5-5-5-5-5-5-7-7-7-7-7-7-7-7-7-7-7-7-7-7-7-7-
--3-3-3-3-3-3-3-3-5-5-5-5-5-5-5-5-7-7-7-7-7-7-7-7-7-7-7-7-7-7-7-7-
--1-1-1-1-1-1-1-1-3-3-3-3-3-3-3-3-5-5-5-5-5-5-5-5-5-5-5-5-5-5-5-5-
--------------------------------------------------^^^^^^^-*******-

riff 5 continued

-----------------------------------
-----------------------------------
--3-3-3-3-3-3-3-3-5-5-5-5-5-5-5-5--
--3-3-3-3-3-3-3-3-5-5-5-5-5-5-5-5--
--1-1-1-1-1-1-1-1-3-3-3-3-3-3-3-3--
-----------------------------------

riff 6
(this is done when marilyn screams "dddeeeeeeaaaaadddd")

e|--------------------------------|
B|--------------------------8^10--|
G|--8-----7-----8-----7-----x-----|
D|--8-0-0-7-0-0-8-0-0-7-0-0-5^7---|
A|--6-0-0-5-0-0-6-0-0-5-0-0-------|
D|----0-0---0-0---0-0---0-0-------|

riff 7
(this appears at the end of the song in the background of riff 1
and riff 6 being played together)

e|-----------|
B|-----------|
G|--x-x-7-7--|
D|--x-x-7-7--|
A|--x-x-5-5--|
D|-----------|