Long Hard Road Outta Hell
Tabbed by Suicidal

Intro( played with acou.guitar )

E--------------
B--------------
G----3----3----(rep.till chorus)
D--2----2---5--

Chorus

E--------------------------------------------
B--------------------------------------------
G--------------------------------------------
D--3-3-3-3-3-3-3-3-6-6-6-6-6-6-6-6-4-4-4-4-4-4-4-4-3-3-3-3-3-3-3-3
A--3-3-3-3-3-3-3-3-6-6-6-6-6-6-6-6-4-4-4-4-4-4-4-4-3-3-3-3-3-3-3-3
E-1-1-1-1-1-1-1-1-4-4-4-4-4-4-4-4-2-2-2-2-2-2-2-2-1-1-1-1-1-1-1-1

Fill 1 (part comes after 4 min )

E------------------------------
B------------------------------
G--9--9--7--9--X-X-X-X-X-X--9-9-7-5--------
D--9--9--7--9--X-X-X-X-X-X--9-9-7-5--------
A--7--7--5--7--X-X-X-X-X-X--7-7-5-3
E------------------------0-3-0-