The Last Day On Earth (Acoustic)
Song: the last day on earth (live & acoustic) 
Artist: Marilyn Manson 
Album: the Last tour on Earth 
Release: 1999 
Tabed by:  Christian Siemer 
           ZmR-51emer@t-online.de 
           03.12.2000 

  Intro: 

e:|------9-----9-------9~~- 
h:|--5-7---7-----7-5-7----- 
G:|----------0------------- 
D:|------------------------ 
A:|------------------------ 
E:|------------------------ 

  und dann: 

| F#/Hm | G | Em | Em | 
| F#/Hm | G | Em | Em | 
| F#/Hm | G | E5 | E5 | 
| Dsus2 | C | H5 | H5 | 

  Verse: 

Am     G        Fmaj7   G 
Yesterday was a million years ago 
Am        G            Fmaj7     G 
In all my past lives I played an ass hole 
Am     G              Fmaj7  G 
Now I found you, it's almost too late 
Am       G           Fmaj7  G 
And this earth seems obliviating 
Am       G       Fmaj7   G 
We are trembling in our crutches 
Am       G        Fmaj7   G 
High and dead our skin is glass 
Am         G     Fmaj7    G 
And I'm so empty here without you 
Am         G     Fmaj7 
I crack my Xerox hands 

  Chorus: 

F#/Hm  G             Em 
     I know it's the last day on earth 
F#/Hm         G                  Em 
     We'll be together while the planet dies 
F#/Hm  G             Em 
     I know it's the last day on earth 
Dsus2             C      H5 
     We'll never say goodbye 

  Interlude: 

e:|-0--------3---0--3----|-0--------0-----------| 
h:|-1--------3---1--3----|-1--------1-keep------| 
G:|-2--------0---2--0----|-2--------2-strumming-| 
D:|-2--------0---3--0----|-2--------3-----------| 
A:|-0--------2---3--2----|-0--------3-----------| 
E:|----------3---0--3----|----------0-----------| 
  |                      |                      | 
e:|---7-----/10--8--7-8~-|---7------------------| 
h:|-5---8~---------------|-5---8~~8p5-----------| 
G:|----------------------|----------------------| 
D:|----------------------|----------------------| 
A:|----------------------|----------------------| 
E:|----------------------|----------------------| 

  Verse 

And the dogs slaughter each other softly 
Love burns its casualties 
We are damaged provider modules 
Spill the seeds at our children's feet 
And I'm so empty here without you 
I know they want me dead 

  Chorus 

I know it's the last day on earth 
We'll be together while the planet dies 
I know it's the last day on earth 
We'll never say goodbye 

  Interlude 2x 

  Chorus 

I know it's the last day on earth 
We'll be together while the planet dies 
I know it's the last day on earth 
We'll never say goodbye 

I know it's the last day on earth 
We'll be together while the planet dies 
I know it's the last day on earth 
We'll never say goodbye 
We'll never say goodbye 
  

  Chord Disclaimer: 

e:|--2--|--3--|--0--|--x--|--x--|--0--| 
h:|--3--|--3--|--3--|--x--|--x--|--1--| 
G:|--4--|--0--|--2--|--x--|--4--|--2--| 
D:|--4--|--0--|--0--|--2--|--4--|--3--| 
A:|--2--|--2--|-----|--2--|--2--|--3--| 
E:|--2--|--3--|-----|--0--|--x--|--0--| 
   F#/Hm   G   Dsus2   E5    H5  Fmaj7